Oops, an error
Loading. Please wait.

Acid Bubble Bass Tab

version 1
version 1

Whole song

Interactive

1,667 views 3 this week
no commentswrite comment
1 2 3 4 5
please rate
add to favorites
launch autoscroll
font size
0
reset
guitar tuner
Autoscroll
slow
fast
+/-
esc
set tempo
stop
Help us to improve Ultimate-Guitar.com Take our survey!
×
Author
tuning:  Db Ab Db Gb

:18 x6
|--------------------|
|--------------0-----|
|--------0-2-3-------|
|--1-2-3----------2--| 

|--------------------|
|--------3-2-0-------|
|--------------3-----|
|--1-2-3----------2--|

x3
|----------------------------------------|
|--------------0-------------3-2-0-------|
|--------0-2-3---------------------3-----|
|--1-2-3----------2----1-2-3----------2--| 

1:23
|---------------------------------|
|---------------------------------|
|--2--2222---2-2--2222--2---------|  
|------------------------5--5555--| 

1:31 x2
|---------------------|
|---------------------|
|--2--2222--2---------|
|------------5--5555--|  

1:42
|----------------------------------------------------------------------|
|----------------------------------------------------------------------|
|--2--2222----------------------22---2-4-5-4-2----------------4--------|
|-----------5--------5-5---2----------------------5-----5-------5---2--|

2:00 
|--------------------------------------|
|--------------------------------------|
|--2--5-5-7---9-7-5-2------------------|
|----------------------5--2--22222220--|

2:10
|---------------------------------|
|---------------------------------|
|--2--5-5-7---9-7-5-2-----4-------|
|-----------------------5---5--2--|

2:20 x2
|----------------------------------------|
|----------------------------------------|
|--2--5--8---2--5--0---2--5--8---2-------|
|-----------------------------------2--2-| 

x6
|------------------------------------------------|
|------------------------------------------------|
|-------------------------------------------0-1--|
|--2---2---0-2-2---2--0-2-3--2--0-2-3-2-0-2------| 

3:27 x4
|-----|
|-----|
|-----|
|--2--| 

x2
|--------------------|
|--------------0-----|
|--------0-2-3-------|
|--1-2-3----------2--| 

|--------------------|
|--------3-2-0-------|
|--------------3-----|
|--1-2-3----------2--|

x3
|----------------------------------------|
|--------------0-------------3-2-0-------|
|--------0-2-3---------------------3-----|
|--1-2-3----------2----1-2-3----------2--| 

4:30
|---------------------------------|
|---------------------------------|
|--2--2222---2-2--2222--2---------|  
|------------------------5--5555--| 

x2
|---------------------|
|---------------------|
|--2--2222--2---------|
|------------5--5555--| 

4:49
|----------------------------------------------------------------------|
|----------------------------------------------------------------------|
|--2--2222----------------------22---2-4-5-4-2----------------4--------|
|-----------5--------5-5---2----------------------5-----5-------5---2--|

5:06 
|--------------------------------------|
|--------------------------------------|
|--2--5-5-7---9-7-5-2------------------|
|----------------------5--2--22222220--|

5:17
|---------------------------------|
|---------------------------------|
|--2--5-5-7---9-7-5-2------4------|
|-----------------------5---5--2--|

|--------------------------------------|
|--------------------------------------|
|--2--5-5-7---9-7-5-2------------------|
|----------------------5--2--22222220--|

|---------------------------------|
|---------------------------------|
|--2--5-5-7---9-7-5-2------4------|
|-----------------------5---5--2--|

x2
|----------------------------------------|
|----------------------------------------|
|--2--5--8---2--5--0---2--5--8---2-------|
|-----------------------------------2--2-| 

x6
|------------------------------------------------|
|------------------------------------------------|
|-------------------------------------------0-1--|
|--2---2---0-2-2---2--0-2-3--2--0-2-3-2-0-2------|


Suggest correction
Give kudos to tab author, rate the tab!
1 2 3 4 5
comments
print report bad tab
guest
You may want to rate the tab now too:
select rating
Wanna post a correction for this tab? Suggest correction