Oops, an error
Loading. Please wait.

Again Tab

version 1
version 1

Whole song

Interactive

19,191 views 33 this week
5 commentsread comments
1 2 3 4 5
worth learning
x 10
add to favorites
launch autoscroll
font size
0
reset
how to read this tab
guitar tuner
Tab Pro tools
  • play this tab
  • loop segment
  • change instrument
  • show fretboard
  • metronome
×
Best way to learn
"Again"
Autoscroll
slow
fast
+/-
esc
set tempo
stop
#-----------------------------PLEASE NOTE-------------------------------------#
#This OLGA file is the author's own work and represents their interpretation  #
#of the song. You may only use this file for private study, scholarship, or   #
#research. Remember to view this file in Courier, or other monospaced font.   #
#See http://www.olga.net/faq/ for more information.                           #
#-----------------------------------------------------------------------------#

Subject: a/alice_in_chains/again.tab


Date: Sun, 12 Jan 1997 07:49:30 -0800
From: RICHARD SHEEHAN 
Subject: alice in chains : again.tab

               Alice in chains - " Again "

G  --------------5----------------4
D  4-4-4-4-4-4-4-5--5-5-5-5-5-5-5-4
A  4-4-4-4-4-4-4----5-5-5-5-5-5-5-
E  2-2-2-2-2-2-2----3-3-3-3-3-3-3-   Main riff/verse
 p.m............    .............

D  4-4-4-4-4-4---4-4-4-4-4-4-4
A  4-4-4-4-4-4---5-5-5-5-5-5-5       chorus
E  2-2-2-2-2-2---3-3-3-3-3-3-3
  that's where layne jerry keep moaning, to get the rythym just right 
listen to the tape

G --5--      -----
D 5-5-5      7-8-8
A 5---5      7-8-8  pre " woo-hoo " part
E 3---3      5-6-6
      ^     ^
 in this middle part, he does a slide w/ harmonics, by i don't know at 
what frets, figure it out yourselfs

G --------5--
D 8-7-7-5-5-5
A 8-7-7-5---5
E 6-5-5-3---3
  Hope this helped, i should have written this earlier cuz i knew it 
for a while. Feedback, correction, or if u just want to talk about the 
great AiC or another good band, e-mail me at jtull1@ix.netcom.com ( the 
third 1 is a one, not an l like the other two )




 "Again" by ALICE IN CHAINS
 --------------------------------------------------
 From: "ALICE IN CHAINS" (Columbia,1995)
 ------------------------------------------------------
 Tabbed by Eyal Babich (04:02 14/05/1997) 
 -----------------------------------------------------------
 
E-MAIL - danielt@mail.save-net.co.il

Tunning: 
 tune down 1/2 step (low to high:Eb Ab Db Gb Bb Eb)
 ------------------------------------------------------------------
 P.M.----------|            Palm Mute
 
 ~~~~~			    Let Ring

 N.H.			    Natural Harmonics
 P.H.			    Pinch Harmonics
 T.H.			    Touch Harmonics
 ^			    Bend Fret
 ---------------------------------------------------------------------- 

 Chords Used:
 
 Ab5	Db5/Ab	   Ab	   G	   A
 ----------------------------------------
 ----------------------------------------
 ---------6---------5--------------2-----
 -6-------6---------6--------------2-----
 -6-------4---------6--------------2-----
 -4-----------------4------3-------------






 INTRO
         Rhy. Fig 1


  Ab5	 Db5/Ab Ab5        D5   G5		   Ab5 Db5  Ab5       D5
-------|----------------------|--------------------|------------------------|
-------|----------------------|--------------------|------------------------|
-------|-----6-------------7--|--------------------|----6-------------7-----|
-------|-----6-------------7--|-5-5-5-5-5-5-5------|----6-------------7-----|
--6-6--|--6-----6-6-6-6-6-----|-5-5-5-5-5-5-5-5-5--|-6-(4)-6-6-6-6-6-(5)----|
--4-4--|--4-----4-4-4-4-4-----|-3-3-3-3-3-3-3-3-3--|-4-----4-4-4-4-4--------| 

 G5 (stil intro)
--------------------------|
--------------------------| (Repeat) 
------------------------o-|     |
---5-5-5-5-5-5-5--------o-|-----|
---5-5-5-5-5-5-5-X-X------|
---3-3-3-3-3-3-3-X-X------|





 VERSES

  Ab5      Db5/Ab Ab5   D5  G5             D5   G5
 
  "Hey......................Let'em Do It Again, Yeah........ "
   
   
   
   
 CHORUS 

 

 Rhy. Fig. 2 (Two Guitars)

 Ab5 Db5/Ab Ab	     G ~~~ A               Ab5 Db5/Ab Ab	 G ~~ A G 
------------------------|-(0)----0-----0--|-------------------------|--------0|
------------------------|--2-----2-----2--|-------------------------|-2---2--2|
------------------------|--0-----0-----0--|-------------------------|-0---0--0|
------------------------|-----------------|-------(4)--(4)----------|---------|
--------4-----5/4-------|-----------------|--------4----5-/4--------|---------|
--4--4--4--4------4--3--|----(3)----------|--4--4--4--4-------4--3--|---3-----|
	         

 "....Again And Again...

 Ab5 Db5/Ab  Ab     G ~~~ A		    Ab5 Db5/Ab        G ~~ A	
-------------------------|-(0)----0----0--|---------------------|----------0--|
-------------------------|--2-----2----2--|---------------------|--2---2---2--|
-------------------------|--0-----0----0--|---------------------|--0---0---0--|
-------(4)---(4)---------|----------------|------(4)---4--------|-------------|
--------4-----5/4--X-----|----------------|-------4----5/4------|-------------|
--4--4--4--4----------3--|----(3)---------|-4--4--4--4-----4--3-|----3--------|


 FILL 1 (Guitar 3)

        ~~~~~~~~~~~~~~  
-------------------------------|
-------------------------------|
-------------------------------|
-------------------------------|
-------------------------------|
---3--3--3--3--3--3--3\--------|



 VERSE 

  Ab5 Db5/Ab  Ab	 D5  G5    Ab5 Db5 Ab5           D5        G5  

 "Hey........................I Know I Made The Same Mistakes.......Oh....
  
   
  GUITAR 1:
								
          N.H		               N.H.                      N.H. 
-----------|----------------|-----------|--------------|----------|-----------|
-----------|----------------|-----------|--------------|----------|-----------|
-----6-----|----------7--7--|--------5--|-----------7--|-----5----|------7--7-|
-----6--6--|--0---5---7--7--|--6--6--6--|--0--5--7--7--|-6-6-6----5--5---7--7-|
--6--4--6--|------5---5--5--|--6--4--6--|-----5--5--5--|-6-4-6-------5---5--5-|
--4--4--4--4------3---------|--4--4--4--4-----3--5-----|-4-4-4--4----3--------|
     pitch:Ab                           Ab		       Ab D 
  
 CHORUS  (Guitar 1 & 2)

 


 FILL 3

  				full (hold bend)  
 1/2 ~~~~~~~~~~~~~~~~~~~~   --------------------------
  |			    | 	    P.H.	     |
--|----------------------|--|---------------------|--|-------------------|
--|----------------------|--7^^---7--7--7--7--7---|-(7)--7-------6^------|
--6----------------------|------------------------|----------------------|
-------------------------|------------------------|----------------------|
-------------------------|------------------------|----------------------|
-------------------------|------------------------|----------------------|

 "......doot doot......yeah.....doot doot......yeah.............."

 VERSE
                 				  
---------------------------------|----------------------------------|
-----------------N.H.------------|----------------------------------|
----------5-------|-------7--7---|------6--------------------7---7--|
--6---6---6-------|----5--7--7---|------6---6-----------5----7---7--|
--6---4---6-------|----5--5--5---|--6---4---6-----------5----5---5--|
--4---4---4---4---3----3---------|--4---4---4---4---3---3-----------|
        pitch:Ab  B			      Ab  B

              
-------------------------------|
-------------------------------|
-----6-----------------7--7----|
--6--6--6----------5---7--7----|
--6--4--6----------5---5--5----|
--4-----4---4--3---3-----------|
           Ab  B




 FILL 2  (Guitar 3)

--------|----------|----------|
--------|----------|----------|
--------|----------|----------|
--------|----------|----------|
--------|----------|----------|
----4---|----------|----------|


GUITAR 3:

           let ring.......
   ~~~~~~~~~~~~~~~~~~~~~~~~~~~~~~~~~~~~~~~~~~~~~
   1/2-----------------------------
    |				  |		       full (hold bend)	
----|-------------------------|---|-----------------|---|--------------------|
----|-------------------------|---|-----------------|--7^^---7--7--7--7--7---|
---(6)------(6)---------------|--(6)----------------|------------------------|
------------------------------|---------------------|------------------------|
------------------------------|---------------------|------------------------|
------------------------------|---------------------|------------------------|



GUITAR 2:

-----------------------------|-----------------------------|
-----------------------------|-----------------------------|
-----6------------------7--7-|-----6----------------7--7---|
--6--6--6-----------5---7--7-|--6--6--6----------5--7--7---|
--6--4--6-----------5---5--5-|--6--4--6----------5--5--5---|
--4-----4---4---3---3--------|--4-----4---4---3--3---------|

-------------------------|
-------------------------|
---6-------------7--7----|
-6-6-6--------5--7--7----|
-6-4-6--------5--5--5----|
-4---4--4--3--3----------|

		       |
		       |
GUITAR 3 (with Gtr.2---| ):

         
	 	   1/2--------------------|			full  
	 ~~~~~~~~~~ |			  |	~~~~~~~~~      ------------
--------------------|----|----------------|--|---------------------|----------|
---(7)---7----------|----|----------------|--|---------------------|----------|
--------------------6^^--|---------------(6)-|-(6)-------4-16-(4^)-|------(4)-|
-------------------------|-------------------|---------------------|----------|
-------------------------|-------------------|---------------------|----------|
-------------------------|-------------------|---------------------|----------|




 GUITAR 1 & 2:

-----------------------|----------------------------|
-----------------------|----------------------------|
----6-------------7--7-|-----6-----------------7----|
--6-6-6--------5--7--7-|-----6-----------------7----|
--6-4-6--------5--5--5-|--6-----6--6--6--6--6-------|
--4---4--4--3--3-------|--4-----4--4--4--4--4-------|
 |
 repeat this part 2 more times




 3rd VERSE (guitar 3):

-----------------------------|---------------------------|
-----------------------------|---------------------------|
-(4)-------------------------|-----6------------------7--|
--5--5--5--5--5--5--5--------|-----6------------------7--|
--5--5--5--5--5--5--5--5--5--|--6-(4)-6--6--6--6--6--(5)-|
--3--3--3--3--3--3--3--3--3--|--4-----4--4--4--4--4------|


----------------------------|--------------------------|
----------------------------|--------------------------|
----------------------------|o----6-----------------7--|
--5--5--5--5--5--5--5-------|o----6-----------------7--|
--5--5--5--5--5--5--5--X-X--|--6-----6--6--6--6--6-----|
--3--3--3--3--3--3--3--X-X--|--4-----4--4--4--4--4-----|

  
  (stil 3rd verse)
 

  
---------------------|-------------------------|-----------------------------|
---------------------|-------------------------|-----------------------------|
----6------------7-7-|----6----------------7-7-|-----5-------------7--7------|
--6-6-6-------5--7-7-|--6-6--6----X--0--5--7-7-|-6-6-6----X--0--5--7--7------|
--6-4-6-----5-5--5-5-|--6-4--6----------5--5-5-|-6-4-6----------5--5--5------|
--4-4-4--4--3-3------|--4----4--4-------3------|-4-4-4--4-------3------------|

 "......Extending Part Of Me...





 OUTRO 

 guitars 1 & 2 play riff A (intro) four times simile
 guitar 3 plays fill 3
			     full
--------------------------|--------------------------|---------------------|
--------------------------|--7^^---7--7--7--7--7-(7)-|--7------------------|
------6--5-----------7--7-|--------------------------|-----------6---(6^)--|
---6--6--6--------5--7--7-|--------------------------|---------------------|
---6--4--6--------5--5--5-|--------------------------|---------------------|
---4--4--4--4--3--3-------|--------------------------|---------------------|
			     "....doot doot....yeah.....doot doot....."	
guitar 3:	    1/2	
---------------------|----|-------------------|-------------|
-(7)---7-------------|----|-------------------|-------------|
----------------6---(6^)--|--(6)--------------|-(6)--------o|
--------------------------|-------------------|------------o|
--------------------------|-------------------|-------------|
--------------------------|-------------------|-------------|			
     full
------------------------------|
-----7^^--7--7--7--7--7-------|
-(6)--------------------------|
------------------------------|
------------------------------|
------------------------------|



 GUITAR 1 & 2

--------------------------|--------------------------|
--------------------------|--------------------------|
-----6--------------7--7--|------------------7--7----|
--6--6--6--------5--7--7--|--6-6-6--------5--7--7----|
--6--4--6--------5--5--5--|--6-4-6--4--4--5--5--5----|
--4-----4--4--3--3--------|--4-4-4--------3----------|
		      |
repeat 2 more times---|




-------------------------------|----------------------------|-----------------|
--(7)---7----------------------|----------------------------|-----------------|
--------------------6----(6^)--|-------18/6-------18/(6)----|-(6)---------(6)-|
-------------------------------|----------------------------|-----------------|
-------------------------------|----------------------------|-----------------|
-------------------------------|----------------------------|-----------------|



             N.H.		          N.H.
---------------------------|-------------------|
---------------------------|-------------------|
-----6---------------7--7--|-----6-------------|
--6--6--6--------5---7--7--|--6--6--6----------|
--6--4--6--------5---5--5--|--6--6--6-------3--|
--4-----4--4--3--3---------|--4-----4---4---3--|
		       |	
repeat one more time----

comments
print report bad tab
5 comments total. Showing first comments.
0 reply
Igg lockwood wrote on February 25 2006, 04:08 pm

lmao this is soo wrong its funny

0 reply
Dirtydeeds468 wrote on March 7 2006, 08:29 pm

Wow. This tab is pretty much 99% inaccurate.

Nice.

0 reply
Dirtydeeds468 wrote on March 7 2006, 08:30 pm

Very, Very wrong. Work on it a bit.

I want to post or [tab]
guest
You may want to rate the tab now too:
select rating
Please do not post tabs as comments. Select "correction" instead!