Oops, an error
Loading. Please wait.

Again Bass Tab

version 2
version 2

Whole song

Interactive

1,712 views 3 this week
no commentswrite comment
1 2 3 4 5
please rate
add to favorites
launch autoscroll
font size
0
reset
guitar tuner
Autoscroll
slow
fast
+/-
esc
set tempo
stop
Help us to improve Ultimate-Guitar.com Take our survey!
×
Author
tuning is 1/2 step down

:00 x14
|-------------------------------------|
|-------------------------------------|
|-------------------------------------|
|--4-4-4-4-4-4-4-44-3-3-3-3-3-3-3-33--|

:54 x4
|----------------------------------|
|----------------------------------|
|----------------------------------|
|--4-4-4-4-4-4-4-5--5-5-5-5-7-5-5--|

1:10 x12
|-------------------------------------|
|-------------------------------------|
|-------------------------------------|
|--4-4-4-4-4-4-4-44-3-3-3-3-3-3-3-33--|

1:57 x4
|----------------------------------|
|----------------------------------|
|----------------------------------|
|--4-4-4-4-4-4-4-5--5-5-5-5-7-5-5--|

2:20 x8
|----------------|
|----------------|
|----2-----------|
|--4---4--4-4/3--|

2:37 x8
|-------------------------------------|
|-------------------------------------|
|-------------------------------------|
|--4-4-4-4-4-4-4-44-3-3-3-3-3-3-3-33--|

3:07 x4
|----------------------------------|
|----------------------------------|
|----------------------------------|
|--4-4-4-4-4-4-4-5--5-5-5-5-7-5-5--|

3:23 x4
|---------|
|---------|
|---------|
|--4-4-4--|

3:31 x15
|----------------|
|----------------|
|----2-----------|
|--4---4--4-4/3--|

4:01
|------------|
|------------|
|----2-------|
|--4---4--3--|
Suggest correction
Give kudos to tab author, rate the tab!
1 2 3 4 5
comments
print report bad tab
guest
You may want to rate the tab now too:
select rating
Please do not post tabs as comments. Select "correction" instead!