Oops, an error
Loading. Please wait.

Again Bass Tab

version 3
version 3

Whole song

Interactive

912 views 12 this week
no commentswrite comment
1 2 3 4 5
3 more votes to show rating
add to favorites
launch autoscroll
font size
0
reset
guitar tuner
Autoscroll
slow
fast
+/-
esc
set tempo
stop
Help us to improve Ultimate-Guitar.com Take our survey!
×
Author
Tuning
D# G# C# F# A# D#
-------------------------------------------------------------------------------
			     Again – Alice in Chains
-------------------------------------------------------------------------------
Bass
Tuning: Eb Ab Db Gb 
Key: \ slide backwards
Verse
|------------------------------------|
|.----------------------------------.|
|.----------------------------------.|
|-4-4-4-4-4-4-4-4-3-3-3-3-3-3-3-3----|


Chorus
|------------------------------------|
|-----------------------------------.|
|-----------------------------------.|
|-4-4-4-4-4-4-4-5--5-5-5-5-7-5-5-----|


Woo-doop
|------------------------------------|
|-----------------------------------.|
|---4------5-5-5-------4-----5-5-5--.|
|-4---3\-------------4---3\----------|
Instructions for playing Woo-doop part:

|---4----|
|-4---3\-| Before Woo-doop

|-5-5-5--| After Woo-doop
Suggest correction
Give kudos to tab author, rate the tab!
1 2 3 4 5
comments
print report bad tab
guest
You may want to rate the tab now too:
select rating
Wanna post a correction for this tab? Suggest correction