Oops, an error
Loading. Please wait.

Again Bass Tab

version 5
version 5

Whole song

Interactive

749 views 1 this week
no commentswrite comment
1 2 3 4 5
accurate
x 3
add to favorites
launch autoscroll
font size
0
reset
guitar tuner
Autoscroll
slow
fast
+/-
esc
set tempo
stop
Help us to improve Ultimate-Guitar.com Take our survey!
×
Author
Tuning
D# G# C# F# A# D#
-------------------------------------------------------------------------------
                             Again - Alice in Chains
-------------------------------------------------------------------------------
This tab was made using a video from Mike Inez,so the notes are 100% correct.

Tuning: Half-Step Down


Intro
Gb|----|
Db|----| 
Ab|----| 
Eb|-00-|

Gb|------------------------------------|
Db|------------------------------------|
Ab|------------------------------------|
Eb|-4-4-4-4-4-4-4-4-3-3-3-3-3-3-3-3-00-|

Verse: (it's the same thing than the Intro)
Gb|------------------------------------|
Db|------------------------------------|
Ab|------------------------------------|
Eb|-4-4-4-4-4-4-4-4-3-3-3-3-3-3-3-3-00-|

Chorus:

Gb|------------------------------------|-----------------------------------|
Db|------------------------------------|-----------------------------------|
Ab|--------------------------------4---|------------------------------4----|
Eb|-4--4~~4-4-4-4~~5-5-5-5-5/7-5-4---4~|-4~~4-4-4-4~~~5-5~~~5-5-0-2\4---4--|

Gb|------------------------------------|------------------------------|
Db|------------------------------------|------------------------------|
Ab|--------------------------------4---|------------------------------|
Eb|-4--4~~4-4-4-4~~5-5-5-5-5/7-5-4---4~|-4~~4-4-4-4~~~5-5~~~5-5-0-2\4-|(Go directly to the Verse)


Verse: 
Gb|------------------------------------|
Db|------------------------------------|
Ab|------------------------------------|
Eb|-4-4-4-4-4-4-4-4-3-3-3-3-3-3-3-3-00-|

Chorus:
                                                                        (2x)
Gb|------------------------------------|-----------------------------------|
Db|------------------------------------|-----------------------------------|
Ab|--------------------------------4---|------------------------------4----|
Eb|-4--4~~4-4-4-4~~5-5-5-5-5/7-5-4---4~|-4~~4-4-4-4~~~5-5~~~5-5-0-2\4---4--|

Rest some seconds 

Interlude:      (Keep repeating this second part)
Gb|------------|--------------------------------|
Db|------------|--------------------------------|
Ab|-------4----|--2-1-----6------2-1-----4------|
Eb|-12\-4---4\-|x-----2/4---4\-x-----2/4---4\---|

(At the last time, you play this and go directly to the Verse) 
Gb|----------------------------|
Db|----------------------------|
Ab|--2-1-----6------2-1--------|
Eb|x-----2/4---4\-x-----2/4----|

Verse: 
Gb|------------------------------------|
Db|------------------------------------|
Ab|------------------------------------|
Eb|-4-4-4-4-4-4-4-4-3-3-3-3-3-3-3-3-00-|

Chorus:              
                                                                        (2x)
Gb|------------------------------------|-----------------------------------|
Db|------------------------------------|-----------------------------------|
Ab|--------------------------------4---|------------------------------4----|
Eb|-4--4~~4-4-4-4~~5-5-5-5-5/7-5-4---4~|-4~~4-4-4-4~~~5-5~~~5-5-0-2\4---4--|

Interlude 2:
        (3x)
Gb|--------|
Db|--------|
Ab|---4----|
Eb|-4---4\-|

Interlude:      (Keep repeating this second part)
Gb|------------|--------------------------------|
Db|------------|--------------------------------|
Ab|-------4----|--2-1-----6------2-1-----4------|
Eb|-12\-4---4\-|x-----2/4---4\-x-----2/4---4\---|

End with:
Gb|-------------------|
Db|-------------------|
Ab|---2-1-----6-------|
Eb|-x-----2/4---4-4-3-|



| /  slide up
| \  slide down
| h  hammer-on
| p  pull-off
| ~  vibrato
| +  harmonic
| x  Mute note
===============================================================================
Suggest correction
Give kudos to tab author, rate the tab!
1 2 3 4 5
comments
print report bad tab
guest
You may want to rate the tab now too:
select rating
Wanna post a correction for this tab? Suggest correction