Oops, an error
Loading. Please wait.

All Secrets Known bass

version 1
version 1

Whole song

Interactive

311 views 1 this week
no commentswrite comment
1 2 3 4 5
3 more votes to show rating
add to favorites
×
Save as Personal and add changes to this tab that will be seen only by you. Learn more ›
×
You can save this tab as Personal to edit and correct it or add notes. All changes will be seen only by you. Learn more »
launch autoscroll
font size
0
reset
guitar tuner
edit
Autoscroll
slow
fast
+/-
esc
set tempo
stop
Song: Alice in Chains - All Secrets Known
Bass Tuning: Db Ab Db Gb
Tabbed by: jjhand

Intro
Gb|------------|------------|-------------------|-------------------------|
Db|------------|------------|-------------------|-------------------------|
Ab|------------|------------|-------------------|-------------------------|
Db|-0----------|-1----------|-3--3--3--3--3--3--|-5-5-5-5-5-5-5-5-5-5-5-5-|



Main Riff - 

    Part A                                Part B
Gb|----------------|----------------|   |----------------|-------------------|
Db|----------------|----------------|   |----------------|-------------------|
Ab|-------5--3--0--|----------------|   |-------5--3--0--|-------------------|
Db|-0--------------|-1-----1--3--5--|   |-0--------------|-1----/8--8--7--5--|

Play Part A 5x, B once, then Part A again 2x

The same pattern repeats until 2:15 in the song



Bridge, part 1 (2:15) - let notes ring
Gb|----------------|----------------|-------------------|
Db|----------------|----------------|-5--------5--------|
Ab|----------------|----------------|-------------------|
Db|-3-----3--3--3--|-5-----5--5--5--|----5--5-----5--5--|
        "All Secrets Known"


    part 2
Gb|----------------|---------------|---------------|-----------------|
Db|----------------|---------------|-3-2-----------|-----------0-2-3-|
Ab|-0------0-----0-|----0------2-3-|-----0--0------|-----0-2-3-------|
Db|----------------|---------5-----|-------------5-|---5-------------|

Gb|----------------|---------------|---------------|-----------------|
Db|----------------|---------------|-3-2-----------|-----------------|
Ab|-0------0-----0-|----0------2-3-|-----0--0------|-----------------|
Db|----------------|---------5-----|-------------5-|-(5)-------------|



Play Main Riff again through solo and Verse 2


At 4:22 play this ending:

Gb|-------------------|-------------------|-------------------|------
Db|-------------------|-------------------|-5--5--5-----------|------
Ab|-------------------|----------5--5--5--|----------5--5--5--|------
Db|-3--3--3--3--3--3--|-5--5--5--5--5--5--|----------5--5--5--|--0---
          "All secrets known"


************************************
Key
| /   slide up
| \   slide down
| h   hammer-on
| p   pull-off
| x   Mute note
| b   Bend

************************************************************************

            
            
Suggest correction
Creating personal tab
Creating personal tab
You can edit any tab online and save it as your Personal.

You can edit, replace or remove any tab part or add personal notes – all changes will be seen only by you.

Personal tabs can be accessed anytime from any device, even offline.
Learn more »
Give kudos to tab author, rate the tab!
1 2 3 4 5
comments
print report bad tab
guest
You may want to rate the tab now too:
select rating
Wanna post a correction for this tab? Suggest correction