Oops, an error
Loading. Please wait.

All Secrets Known Tab

version 2
version 2

Whole song

Interactive

19,348 views 21 this week
6 commentsread comments
1 2 3 4 5
excellent!
x 10
add to favorites
launch autoscroll
font size
0
reset
how to read this tab
guitar tuner
Autoscroll
slow
fast
+/-
esc
set tempo
stop
Help us to improve Ultimate-Guitar.com Take our survey!
×
Author
Difficulty
Tuning
intermediate
D# G# C# F# A# D#
Intro
Repeat this section 3x then move on to the following below...
Eb--------------------------------------------------|
Bb--------------------------------------------------|
Gb--------------------------------------------------|
Db---4-5---4-5---4-5---4-5---5-7---5-7---5-7---5-7--|
Ab-5-----5-----5-----5-----6-----6-----6-----6------|
Db--------------------------------------------------|
   . . . . . . . . . . . . . . . . . . . . . . . .
                    Palm Muted

Guitar 1
Eb-----------------------------------------------------------|
Bb-----------------------------------------------------------|
Gb-----------------------------------------------------------|
Db---7-8---7-8---7-8---7-8-----9-10----9-10----9-10----9-10--|
Ab-8-----8-----8-----8------10------10------10------10-------|
Db-----------------------------------------------------------|
   . . . . . . . . . . . . . . . . . . . . . . . . . . . .
                    Palm Muted
Guitar 2
Eb------------------------------------------------------|
Bb-6-6-6-6-6-6-6-6-6-6-6-6--8-8-8-8-8-8-8-8-8-8-8-8-----|
Gb-5-5-5-5-5-5-5-5-5-5-5-5--7-7-7-7-7-7-7-7-7-7-7-7-----|
Db-3-3-3-3-3-3-3-3-3-3-3-3--5-5-5-5-5-5-5-5-5-5-5-5-----|
Ab-3-3-3-3-3-3-3-3-3-3-3-3--5-5-5-5-5-5-5-5-5-5-5-5-----|
Db-3-3-3-3-3-3-3-3-3-3-3-3--5-5-5-5-5-5-5-5-5-5-5-5-----|


Verse (4x)
Eb--------------------------------------------------|
Bb--------------------------------------------------|
Gb--------------------------------------------------|
Db---4-5---4-5---4-5---4-5---5-7---5-7---5-7---5-7--|
Ab-5-----5-----5-----5-----6-----6-----6-----6------|
Db--------------------------------------------------|
   . . . . . . . . . . . . . . . . . . . . . . . .
                    Palm Muted
Hope,
a new beginning
time,
time to start living
like just before we...

Chorus (the other guitar is playing the verse riff behind the chords)
                  Chords
    D           D#       F        G
Eb-------------------------------------|
Bb--3-----------4--------6--------8----|
Gb--2-----------3--------5--------7----|
Db--0-----------1--------3--------5----|
Ab--0-----------1--------3--------5----|
Db--0-----------1--------3--------5----|
   D         D#
   Died...
D                   D#
   There's no going back
          D       D#
   to the place...
D             D#
   We started from

Verse (4x)
Eb--------------------------------------------------|
Bb--------------------------------------------------|
Gb--------------------------------------------------|
Db---4-5---4-5---4-5---4-5---5-7---5-7---5-7---5-7--|
Ab-5-----5-----5-----5-----6-----6-----6-----6------|
Db--------------------------------------------------|
   . . . . . . . . . . . . . . . . . . . . . . . .
                    Palm Muted
Hurt,
fallin through fingers
Trust,
trust in the feeling
There's something left...

Chorus
   D         D#
   inside...
D                   D#
   There's no going back
          D       D#
   to the place...
D             D#
   We started from
D             D#
AAAAaaahhhhhhhAAAAHHHHH
F              G
   All secrets known

Bridge
repeat this section 3x
Eb--------------------------------------------------------------|
Bb-------------------------------------------8------------------|
Gb-------------------------------------------7------------------|
Db-7----7----7----7-----------------7---7----5------------------|
Ab-7----7----7----7------------8-7--7---7----5-----------5-7-8--|
Db-7----7----7----7----/7-9-10------7---7----5---/7-9-10--------|

Eb------------------------------------------------|
Bb-------------------------------------------8----|
Gb-------------------------------------------7----|
Db-7----7----7----7-----------------7---7----5----|
Ab-7----7----7----7------------8-7--7---7----5----|
Db-7----7----7----7----/7-9-10------7---7----5----|
                                              ring

Solo
guitar 1
this section is played twice before the solo
Eb--------------------------------------------------|
Bb--------------------------------------------------|
Gb--------------------------------------------------|
Db---4-5---4-5---4-5---4-5---5-7---5-7---5-7---5-7--|
Ab-5-----5-----5-----5-----6-----6-----6-----6------|
Db--------------------------------------------------|
   . . . . . . . . . . . . . . . . . . . . . . . .
                    Palm Muted
guitar 2
Eb--12/18-17-15-14-15p14-15p14-15/17~--15-17^18-18v17-------------------------------16---------|
Bb---------------------------------------------------16-15/13--13-15-15~-----15^16----16v15p13~|
Gb---------------------------------------------------------------------------------------------|
Db---------------------------------------------------------------------------------------------|
Ab---------------------------------------------------------------------------------------------|
Db---------------------------------------------------------------------------------------------|


Verse (4x)
Eb--------------------------------------------------|
Bb--------------------------------------------------|
Gb--------------------------------------------------|
Db---4-5---4-5---4-5---4-5---5-7---5-7---5-7---5-7--|
Ab-5-----5-----5-----5-----6-----6-----6-----6------|
Db--------------------------------------------------|
   . . . . . . . . . . . . . . . . . . . . . . . .
                    Palm Muted
Calm,
all wounds are healing
Strong,
truth is worth saving
I want to feel..

   D       D#
   Alive...
D                   D#
   There's no going back
          D       D#
   to the place...
D             D#
   We started from
D             D#
AAAAaaahhhhhhhAAAAHHHHH
F              G
   All secrets known
D(fades out)
Suggest correction
comments
print report bad tab
6 comments total. Showing first comments.
0 reply
basebalfan18 30 wrote on January 12 2010, 05:55 pm

is it just me or does it seem like its supposed to bein drop C not C#? Cuz none of these are matching for me...

+2 reply
basebalfan18 30 wrote on January 13 2010, 10:16 pm

ooh wow nevermind people. false alarm. looks like little brother likes to mess with my tuner and change the frequency on it... that's embarrassing.

0 reply
kingwolf1113 10 wrote on February 13 2010, 05:23 pm

Wow! What a great job on this tab. I think it's pretty much spot on. Whoever you are...Good job!

guest
You may want to rate the tab now too:
select rating
Wanna post a correction for this tab? Suggest correction