Oops, an error
Loading. Please wait.

Angry Chair Bass

version 2
version 2

Whole song

4,583 views 3 this week
3 commentsread comments
1 2 3 4 5
x 4
add to favorites
×
Save as Personal and add changes to this tab that will be seen only by you. Learn more ›
×
You can save this tab as Personal to edit and correct it or add notes. All changes will be seen only by you. Learn more »
save as personal
new!
launch autoscroll
font size
0
reset
guitar tuner
backing track
0:00
0:00
Autoscroll
slow
fast
+/-
esc
set tempo
stop
Difficulty
Tuning
novice
D# G# C# F#
------------------------------
ANGRY CHAIR - Alice In Chains
------------------------------

Tabbed by: Kramer

Tuning: E flat


Riff 1 (verse)
----------------------------------------------|
----------------------------------------------|
-------------2----------3---------------------|
-----------0-----------0----------------------|


Riff 2 "What do I see cross the way..."
---------------------------------------------|
---3-3-3-2-0-2-------------------------------| 4x
----------------1----------------------------|
---------------------------------------------|

Repeat Riff 1

Repeat Riff 2

Riff 3 "I don't mind..."
---------------------------------------------|
---------------------------------------------|
000-22222-----00000-----22222---0h1p0h1p0h1--|
----------333-------000------0---------------|

Repeat Riff 2

Guitar solo (Play riff 2)

Repeat Riff 1 (10x)

Repeat Riff 2 (4x)

Repeat Riff 3

Repeat Riff 2 (4x)


h = hammer on
p = pull off
Suggest correction
comments
print report bad tab
3 comments total.
0 reply
rrandumbb 10 Jul 04, 2010 09:15 PM

5 stars, you're welcome.

0 reply
tydogg2443 522 Feb 28, 2013 07:30 AM

Version 1 has Riff 3 correct. It's wrong here. And Riff 2, the last note is an A with a bend(5th Fret on Eb string, specifically). Not an A#.

guest
Wanna post a correction for this tab? Suggest correction