Oops, an error
Loading. Please wait.

Angry Chair bass

version 3
version 3

Whole song

166 views 1 this week
no commentswrite comment
1 2 3 4 5
2 more votes to show rating
add to favorites
×
Save as Personal and add changes to this tab that will be seen only by you. Learn more ›
×
You can save this tab as Personal to edit and correct it or add notes. All changes will be seen only by you. Learn more »
launch autoscroll
font size
0
reset
guitar tuner
backing track
0:00
0:00
edit
Autoscroll
slow
fast
+/-
esc
set tempo
stop
-------------------------------------------------------------------------------
                             ANGRY CHAIR - Alice In Chains
-------------------------------------------------------------------------------
Tabbed by: Cameron Connors

Tuning:Eb

Intro
Gb|-(9)-------|
Db|-(9)-------|
Ab|-(7)-------|
Eb|--0--------|

Verse x2
Gb|-------------|------------|------------|
Db|-------------|------------|------------|
Ab|-----2----3B-|----2----3B-|----2----3B-|
Eb|---0----0----|--0----0----|--0----0----|

Verse Break x4
Gb|-----------------------|
Db|-----------------------|
Ab|-----------------------|
Eb|-1-1-1-1--0--0---5B----|

Verse x2
Gb|-------------|------------|------------|------------|------------|
Db|-------------|------------|------------|------------|------------|
Ab|-----2----3B-|----2----3B-|----2----3B-|----2----3B-|----2----3B-|
Eb|---0----0----|--0----0----|--0----0----|--0----0----|--0----0----|

Verse Break x4
Gb|-----------------------|
Db|-----------------------|
Ab|-----------------------|
Eb|-1-1-1-1--0--0---5B----|

Chorus x4
Gb|-------------------------------|----------------------------------|
Db|-------------------------------|----------------------------------|
Ab|----------2--2-2---------------|----------2--2-2------------------|
Eb|---5---5---------2--2-2--3-3-3-|---5---5---------0-----(5B-5B-5B)-|

Verse Break x4
Gb|-----------------------|
Db|-----------------------|
Ab|-----------------------|
Eb|-1-1-1-1--0--0---5B----|

Guitar Solo PT1 x3
Gb|--------------------------------|
Db|--------------------------------|
Ab|--------------------------------|
Eb|-1-1-1-1--0--0--(0)-5B-5B-5B----|

Guitar Solo PT2
Gb|------------------------|
Db|------------------------|
Ab|------------------------|
Eb|-1-1-1-1--0--0--(0)-5B--|

Verse x2
Gb|-------------|------------|------------|------------|------------|
Db|-------------|------------|------------|------------|------------|
Ab|-----2----3B-|----2----3B-|----2----3B-|----2----3B-|----2----3B-|
Eb|---0----0----|--0----0----|--0----0----|--0----0----|--0----0----|

Verse Break x4
Gb|-----------------------|
Db|-----------------------|
Ab|-----------------------|
Eb|-1-1-1-1--0--0---5B----|

Chorus x4
Gb|-------------------------------|----------------------------------|
Db|-------------------------------|----------------------------------|
Ab|----------2--2-2---------------|----------2--2-2------------------|
Eb|---5---5---------2--2-2--3-3-3-|---5---5---------0-----(5B-5B-5B)-|

Outro x4
Gb|-----------------------|
Db|-----------------------|
Ab|-----------------------|
Eb|-1-1-1-1--0--0---5B----|


B=bend
Suggest correction
Creating personal tab
Creating personal tab
You can edit any tab online and save it as your Personal.

You can edit, replace or remove any tab part or add personal notes – all changes will be seen only by you.

Personal tabs can be accessed anytime from any device, even offline.
Learn more »
Give kudos to tab author, rate the tab!
1 2 3 4 5
comments
print report bad tab
guest
You may want to rate the tab now too:
select rating
Wanna post a correction for this tab? Suggest correction