Oops, an error
Loading. Please wait.

Angry Chair Tab

version 3
version 3

Whole song

63,460 views 36 this week
11 commentsread comments
1 2 3 4 5
x 35
add to favorites
launch autoscroll
font size
0
reset
how to read this tab
guitar tuner
backing track
0:00
0:00
Autoscroll
slow
fast
+/-
esc
set tempo
stop
Help us to improve Ultimate-Guitar.com Take our survey!
×
Difficulty
Tuning
intermediate
D# G# C# F# A# D#
Tabbed by: Cory
Email: guitarxplayer13@yahoo.com
Tuning: EbAbDbGbBbeb

 [Guitar 1 Clean w/ slight reverb]
D#|-------------|
A#|-------------|
F#|-------------|
C#|-------------| x14 total for intro/verse
G#|-----2---3qb-|
D#|---0---0-----|

 [Guitar 2 High Distortion Verse]
D#|-------|
A#|-------|
F#|---x---|
C#|---2---| Repeat as many times as necessary, just listen to the song.
G#|---2---|
D#|---0---|

 [Bridge]
 [Guitar 1 Distortion]          [Guitar 2 Distortion plays full chords]
D#|-----------------------|    D#|---1-1-1-1--0-0--------|
A#|-----------------------|    A#|---1-1-1-1--0-0--------|
F#|-----------------------|    F#|---2-2-2-2--1-1--------|
C#|---3-3-3-3--2-2--------| x4 C#|---3-3-3-3--2-2--------| x4
G#|---3-3-3-3--2-2--------|    G#|---3-3-3-3--2-2--------|
D#|---1-1-1-1--0-0-0-5fb--|    D#|---1-1-1-1--0-0-0-5fb--|

 [Chorus]
 (Both Guitars Distortion)
D#|-------------------------------------------|
A#|-------------------------------------------|
F#|-------------------------------------------|
C#|---7--9--4--5-----7--9--2------------------|
G#|---7--9--4--5-----7--9--2------------------|
D#|---5--7--2--3-----5--7--0-0-5fbr5fbr5fbr5--|

[Solo]
 Guitar 1  Note: Start with downstroke on solo then alternate for first lick.
       / \ / \ / \       Note: On the 0hb bend behind the nut.
D#|---222424242424-----------------------------------------------------|
A#|------------------0-3-----------------------------------------15fb--|
F#|----------------------------0-------2h4-2h4-2h4---/9-999-9p7--14fb--|
C#|-------------------------------0--x---------------------------------|
G#|----------------------0hb-------------------------------------------|
D#|--------------------------------------------------------------------|

  solo cont.
D#|--------------------------------------17h19hb-------------------------|
A#|--15h17—15h17-16-15-------------15fb--------15fb----12-15-12-15-12-12-|
F#|--------------------16-15-14-12-14fb--------14fb----------------------|
C#|----------------------------------------------------------------------|
G#|----------------------------------------------------------------------|
D#|----------------------------------------------------------------------|

  solo cont.  Once again bend behind the nut, this time slowly release bend.
D#|-x///--------|
A#|-x///--------|
F#|-------------|
C#|-------------|
G#|-------------|
D#|--------0fb--|

************************************

| x  Dead note
| h  Hammer-on
| p  Pull-off
| /  Slide up

************************************
Suggest correction
comments
print report bad tab
11 comments total. Showing first comments.
0 reply
darman92 61 Aug 16, 2009 05:40 AM

Haven't checked the solo yet:P, but the rest seems accurate. Nice tab!

0 reply
andrewjp123 573 Sep 02, 2009 07:32 PM

sounds great!

+1 reply
♪madison♪ 10 Jun 21, 2010 11:23 AM

heres the order of the song:

intro/verse-14x
bridge-4x
intro/verse-4x
bridge-4x
chorus-4x
bridge-4x
solo and bridge together
intro/verse-5x
bridge-4x
chorus-4x
bridge-3x
intro-DRUMS ONLY

guest
You may want to rate the tab now too:
select rating
Wanna post a correction for this tab? Suggest correction