Oops, an error
Loading. Please wait.

Black Gives Way To Blue Bass Tab

version 1
version 1

Whole song

Interactive

1,612 views 6 this week
no commentswrite comment
1 2 3 4 5
please rate
add to favorites
launch autoscroll
font size
0
reset
guitar tuner
Autoscroll
slow
fast
+/-
esc
set tempo
stop
Help us to improve Ultimate-Guitar.com Take our survey!
×
Author
tuning 1/2 step down

   (:21) x5            
|-------------------|
|-------------------|
|-------------------|  
|--10--7--5--5/12---|

   (:53)
|----------------|
|----------------|
|----------------| 
|--10--7--5--12--|

  (1:04)                (1:17)
|---------------------|---------|
|---------------------|---------|
|---------------------|--7/14---|
|--10--7--5--5/12--9--|---------|

  
  (1:20)                   (1:30)
|------------------------|------------------------|
|------------------------|--------------------11--|
|--12--12/7-------7/14---|--12--12/7---14--12-----|
|------------------------|------------------------|


  (1:47) x3           
|-------------------|
|-------------------|
|-------------------|  
|--10--7--5--5/12---|

  (2:18)
|-----------------------------------------------|
|-----------------------------------------------|
|----------------------12--12/7------7/14---12--| 
|--10--7--5--9--10------------------------------|
Suggest correction
Give kudos to tab author, rate the tab!
1 2 3 4 5
comments
print report bad tab
guest
You may want to rate the tab now too:
select rating
Please do not post tabs as comments. Select "correction" instead!