Oops, an error
Loading. Please wait.

Black Gives Way To Blue Tab

version 1
version 1

Whole song

Interactive

9,191 views 9 this week
2 commentsread comments
1 2 3 4 5
1 last vote to show rating
add to favorites
launch autoscroll
font size
0
reset
how to read this tab
guitar tuner
×
Best way to learn
"Black Gives Way To Blue"
Autoscroll
slow
fast
+/-
esc
set tempo
stop
----------------------------------------------------------------------------
                             Black Gives Way to Blue -Alice in Chains
-------------------------------------------------------------------------------
Tabbed by: Brohj
Tuning: standard

Heard the song and thought i need to play that, so here is what i got from a live performance.
   this should be pretty close, if not spot on. have fun with it. good song.

e|-----------------------------------------------------------------------------|
B|------3-3-------2-2------1-1--------4-4--------------------------------------|
G|------6-6-------3-2------1-1--------0-0--------------------------------------|
D|---6--6-6----3--3-3---1--1-1-----5--5-5--------------------------------------|
A|--4-4-----4-1-1-----1---------0/6-6-----6 repete-----------------------------|
E|---------------------4-4-----------------------------------------------------|

    the fourth chord changes to this at some point
e|-----------------------------------------------------------------------------|
B|-----------------------------------------------------------------------------|
G|----------9--9---------------------------------------------------------------|
D|----------10-10--------------------------------------------------------------|
A|-----10---10-10--------------------------------------------------------------|
E|----8--8---------------------------------------------------------------------|
Suggest correction
Give kudos to tab author, rate the tab!
1 2 3 4 5
comments
print report bad tab
2 comments total.
0 reply
Brohj 10 Dec 24, 2009 09:27 PM

One correction, the first chord should be 664 not 663, looks like a small error. Otherwise spot on. Sounds good, unlike the other tabs that are pure chords..realy whats up with songs in pure chords, its like they said hey im lazy and this sounds close enough.

0 reply
nt1912 10 Mar 10, 2010 09:07 AM

Intro- verse ------------------------------------------------------------------ 
------------------------------------------------------------------
----4---4---4--------9---9---9-------6---6---6-------4---4---4----
---2---2---2--------6---6---6-------4---4---4-------4---4---4----
--0----0---0-------7---7---7-------5---5---5-------2---2---2------
------------------------------------------------------------------

When it goes tomorrows haunted....
----------------------------------------------------------------
----------------------------------------------------------------
------4---4---4------7---7---7-------6---6---6-----4---4---4----
------2---2---2------6---6---6-------4---4---4-----4---4---4-----
----0---0---0------5---5---5--------5---5---5-----2---2---2-------
------------------------------------------------------------------

then back into verse... basically it..

guest
You may want to rate the tab now too:
select rating
Wanna post a correction for this tab? Suggest correction