Oops, an error
Loading. Please wait.

Bleed The Freak Bass Tab

version 2
version 2

Whole song

Interactive

5,002 views 6 this week
no commentswrite comment
1 2 3 4 5
please rate
add to favorites
launch autoscroll
font size
0
reset
guitar tuner
Autoscroll
slow
fast
+/-
esc
set tempo
stop
Help us to improve Ultimate-Guitar.com Take our survey!
×
Author
Difficulty
novice
tuning 1/2 step down

intro
|--------7-6-6---------------7-9-11-9-7-------------------|
|---------------9p7----------------------9----------------|
|-------------------------------------------10-12-10------|
|---3/7--------------12-3/7---------------------------12--|

verse
|-------------------------------------------------------------------|
|---9------------9------------------9--------------9----------------|
|-----10-12---------10-12-10-----------10-12----------10-12-10------|
|-----------12----------------12-------------12-----------------12--|

chorus
|---------------------------------------------------------------------|
|--9-------------9----------------9----------------9------------------|
|----10-12-7777----10-12-10-7777----10-12-10-7777----10-12-12-10-7777-|
|---------------------------------------------------------------------|

bridge
G--------------------------I-------------------I------------------|
D--8-9-7-9-7---------------I---------------9-7-I-9----------------|
A------------9888888888888-I-9888888888888-----I---10-------------|
E--------------------------I-------------------I------------------|

solo
|-----------------------------------------------------------------|
|--11-11-11----------------------11-------------------------------|
|-----------12-14-12----------------12-14-14-12-------------------|
|--------------------12-12-12-12----------------12-12-12-12-------|

|-----------------------------------------------------------------|
|--11----------------------11-------------------------------------|
|-----12-14-12----------------12-14-14-12-------------------------|
|--------------12-12-12-12----------------12----------------------|


|-----------------------------------------------------------------|
|--9--9-9-9-9---9-9-----------------------------------------------|
|-----------------------------------------------------------------|
|-----------------------------------------------------------------|


The other tab for this is in standard tune, but I turned it into Alice's 1/2 step down tune.
Suggest correction
Give kudos to tab author, rate the tab!
1 2 3 4 5
comments
print report bad tab
guest
You may want to rate the tab now too:
select rating
Please do not post tabs as comments. Select "correction" instead!