Oops, an error
Loading. Please wait.

Bleed The Freak bass

version 3
version 3

Whole song

Interactive

538 views 3 this week
no commentswrite comment
1 2 3 4 5
2 more votes to show rating
add to favorites
×
Save as Personal and add changes to this tab that will be seen only by you. Learn more ›
×
You can save this tab as Personal to edit and correct it or add notes. All changes will be seen only by you. Learn more »
launch autoscroll
font size
0
reset
guitar tuner
edit
Autoscroll
slow
fast
+/-
esc
set tempo
stop
-------------------------------------------------------------------------------
                             SONG NAME - Band Name
-------------------------------------------------------------------------------
Tabbed by: David
E-mail: 

Tuning: Tune 1/2 step down
 
 I tried to match up where the notes and words correlate in the song. 
 This is mostly accurate, Mike may have some extra strums here and there, 
 just listen and you can hear where they are.

Intro 
G|------76---------------------7-9-9s11-9-7----7-----------------------------|
D|-5s9-------9s7--5------5s9----------------------9--5-77-5------------------|
A|------------------7---------------------------------------7----------------|
E|---------------------------------------------------------------------------|

Verse
   Myyyyyy    cup runneth over
G|---------------------------------------------------------------------------|
D|---------------------------------------------------------------------------|
A|-2---0------------------2---0-0--------------------------------------------|
E|---3---0-(let ring)--------3-----3-0-(let ring)----------------------------|

   liiiike    blood from a stoooone
G|---------------------------------------------------------------------------|
D|---------------------------------------------------------------------------|
A|-2---0---------------------2---0-0-----------------------------------------|
E|---3---0-(let ring)-----------3-----3-0-(let ring)-------------------------|

Chorus
   These stand for meeeeee    name your god and bleed the freak
G|---------------------------------------------------------------------------|
D|---------------------------------------------------------------------------|
A|-2---0----------------------2---0-0----------------------------------------|
E|---3---0-----0000-------------3-----3-0---0000-----------------------------|

   I'd like to seeeee         how you all would bleed for me
G|---------------------------------------------------------------------------|
D|---------------------------------------------------------------------------|
A|-2---0----------------------2---0-0----------------------------------------|
E|---3---0-----0000------------3-----3-0----0000---------------------00000000|

Verse 2
       When the pig runs slower        let the arrow flyyyy
G|---------------------------------------------------------------------------|
D|---------------------------------------------------------------------------|
A|-1212----------------------------1212--------------------------------------|
E|-----12111111111---------------------12111111111---------------------------|

       When the sin lies bolder        I'll pluck out thine eye
G|---------------------------------------------------------------------------|
D|---------------------------------------------------------------------------|
A|-1212----------------------------1212-------------------5------------------|
E|-----12111111111---------------------12111111111----------5----------------|

Chorus
   These stand for meeee      name your god and bleed the freak
G|---------------------------------------------------------------------------|
D|---------------------------------------------------------------------------|
A|-2---0----------------------2---0-0----------------------------------------|
E|---3---0-----0000-------------3-----3-0------0000--------------------------|
   
   I'd like to seeee          how you all would bleed for me
G|---------------------------------------------------------------------------|
D|---------------------------------------------------------------------------|
A|-2---0----------------------2---0-0----------------------------------------|
E|---3---0-----0000-------------3-----3-0-----0000---------------00000000----|

Verse 3
       If you scorn my lover           Satan got your thigh
G|---------------------------------------------------------------------------|
D|---------------------------------------------------------------------------|
A|-1212----------------------------1212--------------------------------------|
E|-----12111111111---------------------12111111111---------------------------|

       If you steal in hunger          I will kick you when you try
G|---------------------------------------------------------------------------|
D|---------------------------------------------------------------------------|
A|-1212----------------------------1212-------------------5------------------|
E|-----12111111111---------------------12111111111----------5----------------|

Chorus
   These stand for meeee     Name your god and bleed the freak
G|---------------------------------------------------------------------------|
D|---------------------------------------------------------------------------|
A|-2---0---------------------2---0-0-----------------------------------------|
E|---3---0-----0000------------3-----3-0-------------------------------------|

   I'd like to seeee         how you all would bleed for me
G|---------------------------------------------------------------------------|
D|---------------------------------------------------------------------------|
A|-2---0---------------------2---0-0-----------------------------------------|
E|---3---0-----0000------------3-----3-0-----0000----------------------------|

Solo
G|---------------------------------------------------------------------------|
D|---------------------------------------------------------------------------|
A|-4-0-2---------------------4-0-2-2-0---------------------------------------|
E|-------2-----2222--------------------2-----2222----------------------------|


G|---------------------------------------------------------------------------|
D|---------------------------------------------------------------------------|
A|-4-0-2---------------------4-0-2-2-0---------------------------------------|
E|-------2-----2222--------------------2-----2222~~~~~-----------------------|
   
****IN THE OFFICIAL VIDEO/LIVE VERSION MIKE STARR ADDS THIS IN BEFOR THE BRIDGE
G|-----------------76---------------------7-9-9s11-9-7---7-------------------|
D|------------5s9-------9s7--5------5s9----------------------9--5-77-5-------|
A|-----------------------------7---------------------------------------7-----|
E|-2s7---7s0-----------------------------------------------------------------|   

**Studio version
   opening guitar riff plays with some indistinct talking in background
G|---------------------------------------------------------------------------|
D|---------------------------------------------------------------------------|
A|---------------------------------------------------------------------------|
E|---------------------------------------------------------------------------|


Bridge
      IIIIIIIIIIIIIIIII  All these thing you've done for me
G|---------------------------------------------------------------------------|
D|---------------------------------------------------------------------------|
A|---------------2---0-------------------------------------------------------|
E|-----------------3---0-----------------------------------------------------|

       have left me so   FUCKING TIIIIIIRRRRED!         Oooooooohhhh
G|---------------------------------------------------------------------------|
D|---------------------------------------------------------------------------|
A|-2---0-0-------------------------2---0------------2---0-0------------------|
E|---3-----3-0-----------------------3---0------------3-----3-0--------------|

   I'm not saying you haven't done a lot of good
G|---------------------------------------------------------------------------|
D|---------------------------------------------------------------------------|
A|---------2---0-------------------------------------------------------------|
E|-----------3---0-----------------------------------------------------------|
   
     But if there's one thing you could do 
G|---------------------------------------------------------------------------|
D|---------------------------------------------------------------------------|
A|-2---0-0-------------------------------------------------------------------|
E ---3-----3-0---------------------------------------------------------------|

   you can BLEED FOR ME           BLEED FOR MEEEEEEEEEEEEEE
G|---------------------------------------------------------------------------|
D|---------------------------------------------------------------------------|
A|-------------------2---0------------------2---0-0--------------------------|
E|---------------------3---0------------------3-----3-0-0000-----------------|

Repeat chorus two more times to end the song

























































===============================================================================
Suggest correction
Creating personal tab
Creating personal tab
You can edit any tab online and save it as your Personal.

You can edit, replace or remove any tab part or add personal notes – all changes will be seen only by you.

Personal tabs can be accessed anytime from any device, even offline.
Learn more »
Give kudos to tab author, rate the tab!
1 2 3 4 5
comments
print report bad tab
guest
You may want to rate the tab now too:
select rating
Wanna post a correction for this tab? Suggest correction