Oops, an error
Loading. Please wait.

Breath On A Window bass

130 views 1 this week
no commentswrite comment
1 2 3 4 5
3 more votes to show rating
add to favorites
×
Save as Personal and add changes to this tab that will be seen only by you. Learn more ›
×
You can save this tab as Personal to edit and correct it or add notes. All changes will be seen only by you. Learn more »
launch autoscroll
font size
0
reset
guitar tuner
edit
Autoscroll
slow
fast
+/-
esc
set tempo
stop
Alice in Chains - "Breath on a Window"
From "The Devil Put Dinosaurs Here" album
Tabbed by: jjhand
Tuning: Bass Eb standard

The bass stays in a simple rhythm on this one, not playing in sync with 
the drum beats but adding to the guitar nonetheless. This song has good
simple yet melodic riffs so try it and please rate or comment.

Intro - beats marked

   1   2   3   4     1   2   3   4
Gb|-----------------|-----------------|
Db|-----------------|-----------------|
Ab|-----------------|-----------------|  play 2x
Eb|-0---0-0-0---0-0-|---0-0---0-0-0-0-|




Verse Riff - played 4x
|-----------------|-----------------|---------------|-----------------|
|-----------------|-----------------|---------------|-----------------|
|-----------------|-----------------|---------5-----|-----------1-0---|
|-0-----0-0---0-0-|---0-0-----0-0-2-|-3-----3-------|-0---0-0-------3-|


Chorus
|-----------------|------------|-----------------|-------------|
|-----------------|------------|-----------------|-------------|
|-0-1-0-1---------|------------|-0-1-0-1---------|-------------|
|-----------0-----|-(0)--------|-----------0-----|-(0)---------|

|-----------------|--------------|----------------|-------------|
|-----------------|--------------|----------------|-------------|
|-0-1-0-3---------|--------5-5---|----------------|-------------|
|-----------3-----|-(3)--------5-|-5-0----0-0-----|-0-----0-----|


Play Verse Again

Play Chorus Again



Bridge (2:07 - 3:31)
|-----------------|-------------------|
|-----------7\----|-------------------|
|-7/9---9-9-------|-------------------|
|-----------------|--/5-5-5---6-6-----|



Outro Riff (3:32 to 4:16)

|----------------|----------------|----------------|-----------------|
|----------------|----------------|----------------|-----------------|
|-5---5---5------|----------------|----------------|-2---2---2-0-2-4-|
|----------------|-2---2---2------|-0---0---0------|-----------------|

|----------------|----------------|----------------|-----------------|
|----------------|----------------|----------------|-----------------|
|-5---5---5------|----------------|-4---4---4------|-7-7-7-7-7-7-7-7-|
|----------------|-2---2---2------|----------------|-----------------|

Outro Riff - Part 2 (4:17 to end)
|-----------------|----------------|----------------|-----------------|
|---------4---7---|----------------|----------------|-----------------|
|-5---5-----------|----------------|----------------|-2---2---2-0-2-4-|
|-----------------|-2---2---2------|-0---0---0------|-----------------|

|-----------------|----------------|----------------|-----------------|
|---------7---4---|----------------|----------------|-----------------|
|-5---5-----------|----------------|-4---4---4------|-7-7-7-7-7-7-7-7-|
|-----------------|-2---2---2------|----------------|-----------------|




Key:
| /  slide up
| \  slide down
| h  hammer-on
| p  pull-off
Suggest correction
Creating personal tab
Creating personal tab
You can edit any tab online and save it as your Personal.

You can edit, replace or remove any tab part or add personal notes – all changes will be seen only by you.

Personal tabs can be accessed anytime from any device, even offline.
Learn more »
Give kudos to tab author, rate the tab!
1 2 3 4 5
comments
print report bad tab
guest
You may want to rate the tab now too:
select rating
Wanna post a correction for this tab? Suggest correction