Oops, an error
Loading. Please wait.

Brush Away Bass Tab

version 2
version 2

Whole song

Interactive

970 views 15 this week
no commentswrite comment
1 2 3 4 5
excellent!
x 1
add to favorites
launch autoscroll
font size
0
reset
guitar tuner
Tab Pro tools
  • play this tab
  • loop segment
  • change instrument
  • show fretboard
  • metronome
Autoscroll
slow
fast
+/-
esc
set tempo
stop
Contributor
Difficulty
Tuning
intermediate
D# G# C# F# A# D#
Alice in Chains - "Brush Away"
From the "Alice in Chains" 1995 Album
Bass Tuning - Eb Ab Db Gb 
tabbed by jjhand

This song has some nice simple bass riffs that give it a spooky sound. 
Please rate/comment.


Intro (Main Riff) - Guitar only


(0:09) Verse - Play similarly throughout

  1     2     3     4
|------------------------|---------------------------|
|----------6--5----------|----------6--5--/9-(9)-(8)-| < add () notes 
|-4-----4----------------|-4-----4-------------------|   every other time
|----4-------------------|----4----------------------|
 "I                              could use some 


|------------------------|-------------------------|
|----------6--5----------|-------------------------|
|-4-----4----------------|-4-----4-----------------|
|----4-------------------|----4-----0--0--2--3--4--|
 "time to curl away"


Continue lyrics:

"My aggression is where you stake your claim
 Why I question this curve on which you grade?
 My conception, a joke or latest craze?"





Chorus - play 2x

|-----------------|----------------|-----------------|------------------|
|-----------------|----------------|-----------------|------------------|
|-----------------|----------------|-----------0-0-0-|-0-2-2-2-2~-------|
|-0-2-2-3-3-0-0-0-|-0-2-2-2---2----|-0-2-2-3-3-------|------------------|

                "I try to get away,               and yet I stick around"
                "So fall and crawl away,     and brush away loose ground"




Resume Verse Riff

"My intention, I arrive at eight?
Lie and dream some, surprise you guys I'm late.
All right, correction, forgetting something... wait"




(1:40) Play Chorus Again


After Layne says "Yeah.....", play Verse Riff through solo part


(2:44) Play Chorus Again


Play Main Riff as song ends


KEY:
| /   slide up
| \   slide down
| h   hammer-on
| p   pull-off
| ~   vibrato
comments
We did not receive enough feedback on this tab! Please rate:
print report bad tab
1 2 3 4 5
I want to post or [tab]
guest
You may want to rate the tab now too:
select rating
Please do not post tabs as comments. Select "correction" instead!