Oops, an error
Loading. Please wait.

Check My Brain Tab

version 1
version 1

Whole song

Interactive

Video

91,819 views 24 this week
13 commentsread comments
1 2 3 4 5
x 7
add to favorites
launch autoscroll
font size
0
reset
how to read this tab
guitar tuner
Autoscroll
slow
fast
+/-
esc
set tempo
stop
Help us to improve Ultimate-Guitar.com Take our survey!
×
Author
Difficulty
Tuning
Tabbers playing skills
intermediate
D# G# C# F# A# D#
advanced ++
-------------------------------------------------------------------------------
                             CHECK MY BRAIN - Alice In Chains
-------------------------------------------------------------------------------

Tabbed by: Isaias Garcia (TexasFury)

Tuning: Eb (half step down)


Rhythm - Eb tuning

[Intro]
      H        Q    E  E      Q    E    E    E    E    E    E       Q    E  E  E  E   E  E    
D#|-----------------------|-------------------------------------|---------------------------|
A#|-----------------------|-------------------------------------|---------------------------|
F#|-----------------------|-------------------------------------|---------------------------|
C#|-----------------------|-------------------------------------|---------------------------|
G#|-----------------------|-------------------------------------|---------------------------|
D#|-------------------1b--|--L----1pb--1pb--1pb--1pb--1pb--1pb--|--L----1--1--1--2b--L--1b--|


     Q    E    E    E    E    E    E       Q    E  E  E  E   E  E    
D#|-------------------------------------|---------------------------|
A#|-------------------------------------|---------------------------|
F#|-------------------------------------|---------------------------|
C#|-------------------------------------|---------------------------|
G#|-------------------------------------|---------------------------|
D#|--L----1pb--1pb--1pb--1pb--1pb--1pb--|--L----1--1--1--2b--L--1b--|


     Q    E    E    E    E    E    E       Q    E  E  E  E   E  E    
D#|-------------------------------------|---------------------------|
A#|-------------------------------------|---------------------------|
F#|-------------------------------------|---------------------------|
C#|-------------------------------------|---------------------------|
G#|-------------------------------------|---------------------------|
D#|--L----1pb--1pb--1pb--1pb--1pb--1pb--|--L----1--1--1--2b--L--1b--|


     Q    E    E    E    E    E    E       Q    E  E  E  E   E  E    
D#|-------------------------------------|---------------------------|
A#|-------------------------------------|---------------------------|
F#|-------------------------------------|---------------------------|
C#|-------------------------------------|---------------------------|
G#|-------------------------------------|---------------------------|
D#|--L----1pb--1pb--1pb--1pb--1pb--1pb--|--L----1--1--1--2b--L--1b--|


     Q    E    E    E    E    E    E       Q    E  E  E  E   E  E    
D#|-------------------------------------|---------------------------|
A#|-------------------------------------|---------------------------|
F#|-------------------------------------|---------------------------|
C#|-------------------------------------|---------------------------|
G#|-------------------------------------|---------------------------|
D#|--L----1pb--1pb--1pb--1pb--1pb--1pb--|--L----1--1--1--2b--L--1b--|


     Q    E    E    E    E    E    E       Q    E  E  E  E   E  E    
D#|-------------------------------------|---------------------------|
A#|-------------------------------------|---------------------------|
F#|-------------------------------------|---------------------------|
C#|-------------------------------------|---------------------------|
G#|-------------------------------------|---------------------------|
D#|--L----1pb--1pb--1pb--1pb--1pb--1pb--|--L----1--1--1--2b--L--1b--|


     Q    E    E    E    E    E    E       Q    E  E  E  E   E  E    
D#|-------------------------------------|---------------------------|
A#|-------------------------------------|---------------------------|
F#|-------------------------------------|---------------------------|
C#|-------------------------------------|---------------------------|
G#|-------------------------------------|---------------------------|
D#|--L----1pb--1pb--1pb--1pb--1pb--1pb--|--L----1--1--1--2b--L--1b--|


     Q    E    E    E    E    E    E       Q    E  E  E  E   E  E    
D#|-------------------------------------|---------------------------|
A#|-------------------------------------|---------------------------|
F#|-------------------------------------|---------------------------|
C#|-------------------------------------|---------------------------|
G#|-------------------------------------|---------------------------|
D#|--L----1pb--1pb--1pb--1pb--1pb--1pb--|--L----1--1--1--2b--L--1b--|


   [Verse 1]
     Q       E    E    E    E    E    E       Q    E  E  E  E   E  E    
D#|----------------------------------------|---------------------------|
A#|----------------------------------------|---------------------------|
F#|----------------------------------------|---------------------------|
C#|----------------------------------------|---------------------------|
G#|----------------------------------------|---------------------------|
D#|--L-------1pb--1pb--1pb--1pb--1pb--1pb--|--L----1--1--1--2b--L--1b--|


     Q    E    E    E    E    E    E       Q    E  E  E  E   E  E    
D#|-------------------------------------|---------------------------|
A#|-------------------------------------|---------------------------|
F#|-------------------------------------|---------------------------|
C#|-------------------------------------|---------------------------|
G#|-------------------------------------|---------------------------|
D#|--L----1pb--1pb--1pb--1pb--1pb--1pb--|--L----1--1--1--2b--L--1b--|


     Q    E    E    E    E    E    E       Q    E  E  E  E   E  E    
D#|-------------------------------------|---------------------------|
A#|-------------------------------------|---------------------------|
F#|-------------------------------------|---------------------------|
C#|-------------------------------------|---------------------------|
G#|-------------------------------------|---------------------------|
D#|--L----1pb--1pb--1pb--1pb--1pb--1pb--|--L----1--1--1--2b--L--1b--|


   [Chorus 1]
     Q    E    E    E    E    E    E       Q    E  E  E  E   E  E     Q        Q    E  E  E  E   
D#|-------------------------------------|--------------------------|----------------------------|
A#|-------------------------------------|--------------------------|----------------------------|
F#|-------------------------------------|--------------------------|-------------------------9--|
C#|-------------------------------------|-----------------------4--|--L--------4----4--4--4--9--|
G#|-------------------------------------|-----------------------4--|--L--------4----4--4--4--7--|
D#|--L----1pb--1pb--1pb--1pb--1pb--1pb--|--L----1--1--1--2b--L--2--|--L--------2----2--2--2-----|


     E  E  Q    E  E  E  E     E  E  Q    E  E  E  E     Q.     E  E   E   E  E   
D#|-------------------------|-------------------------|--------------------------|
A#|-------------------------|-------------------------|--------------------------|
F#|--L--9--9----9--9--9-----|-------------------------|--------------------------|
C#|--L--9--9----9--9--9--9--|--L--9--9----9--9--9--7--|--L------9--L--11---L--4--|
G#|--L--7--7----7--7--7--9--|--L--9--9----9--9--9--7--|--L------9--L--11---L--4--|
D#|----------------------7--|--L--7--7----7--7--7--5--|--L------7--L---9---L--2--|


     Q    Q    E  E  E  E     E  E  Q    E  E  E  E     E  E  Q    E  E  E  E   
D#|------------------------|-------------------------|-------------------------|
A#|------------------------|-------------------------|-------------------------|
F#|---------------------9--|--L--9--9----9--9--9--4--|--L--4--4----4--4--4--2--|
C#|--L----4----4--4--4--9--|--L--9--9----9--9--9--4--|--L--4--4----4--4--4--2--|
G#|--L----4----4--4--4--7--|--L--7--7----7--7--7--2--|--L--2--2----2--2--2--0--|
D#|--L----2----2--2--2-----|-------------------------|-------------------------|


     Q.     E  E  E   E  E      Q    E    E    E    E    E    E       Q    E  E  E  E   E  E    
D#|--------------------------|-------------------------------------|---------------------------|
A#|--------------------------|-------------------------------------|---------------------------|
F#|--L------4--L--6---L------|-------------------------------------|---------------------------|
C#|--L------4--L--6---L------|-------------------------------------|---------------------------|
G#|--L------2--L--4---L------|-------------------------------------|---------------------------|
D#|----------------------1b--|--L----1pb--1pb--1pb--1pb--1pb--1pb--|--L----1--1--1--2b--L--1b--|


     Q    E    E    E    E    E    E       Q    E  E  E  E   E  E    
D#|-------------------------------------|---------------------------|
A#|-------------------------------------|---------------------------|
F#|-------------------------------------|---------------------------|
C#|-------------------------------------|---------------------------|
G#|-------------------------------------|---------------------------|
D#|--L----1pb--1pb--1pb--1pb--1pb--1pb--|--L----1--1--1--2b--L--1b--|


     Q    E    E    E    E    E    E       Q    E  E  E  E   E  E    
D#|-------------------------------------|---------------------------|
A#|-------------------------------------|---------------------------|
F#|-------------------------------------|---------------------------|
C#|-------------------------------------|---------------------------|
G#|-------------------------------------|---------------------------|
D#|--L----1pb--1pb--1pb--1pb--1pb--1pb--|--L----1--1--1--2b--L--1b--|


     Q    E    E    E    E    E    E       Q    E  E  E  E   E  E    
D#|-------------------------------------|---------------------------|
A#|-------------------------------------|---------------------------|
F#|-------------------------------------|---------------------------|
C#|-------------------------------------|---------------------------|
G#|-------------------------------------|---------------------------|
D#|--L----1pb--1pb--1pb--1pb--1pb--1pb--|--L----1--1--1--2b--L--1b--|


   [Verse 2]
     Q       E    E    E    E    E    E       Q    E  E  E  E   E  E    
D#|----------------------------------------|---------------------------|
A#|----------------------------------------|---------------------------|
F#|----------------------------------------|---------------------------|
C#|----------------------------------------|---------------------------|
G#|----------------------------------------|---------------------------|
D#|--L-------1pb--1pb--1pb--1pb--1pb--1pb--|--L----1--1--1--2b--L--1b--|


     Q    E    E    E    E    E    E       Q    E  E  E  E   E  E    
D#|-------------------------------------|---------------------------|
A#|-------------------------------------|---------------------------|
F#|-------------------------------------|---------------------------|
C#|-------------------------------------|---------------------------|
G#|-------------------------------------|---------------------------|
D#|--L----1pb--1pb--1pb--1pb--1pb--1pb--|--L----1--1--1--2b--L--1b--|


     Q    E    E    E    E    E    E       Q    E  E  E  E   E  E    
D#|-------------------------------------|---------------------------|
A#|-------------------------------------|---------------------------|
F#|-------------------------------------|---------------------------|
C#|-------------------------------------|---------------------------|
G#|-------------------------------------|---------------------------|
D#|--L----1pb--1pb--1pb--1pb--1pb--1pb--|--L----1--1--1--2b--L--1b--|


   [Chorus 2]
     Q    E    E    E    E    E    E       Q    E  E  E  E   E  E     Q        Q    E  E  E  E   
D#|-------------------------------------|--------------------------|----------------------------|
A#|-------------------------------------|--------------------------|----------------------------|
F#|-------------------------------------|--------------------------|-------------------------9--|
C#|-------------------------------------|-----------------------4--|--L--------4----4--4--4--9--|
G#|-------------------------------------|-----------------------4--|--L--------4----4--4--4--7--|
D#|--L----1pb--1pb--1pb--1pb--1pb--1pb--|--L----1--1--1--2b--L--2--|--L--------2----2--2--2-----|


     E  E  Q    E  E  E  E     E  E  Q    E  E  E  E     Q.     E  E   E   E  E   
D#|-------------------------|-------------------------|--------------------------|
A#|-------------------------|-------------------------|--------------------------|
F#|--L--9--9----9--9--9-----|-------------------------|--------------------------|
C#|--L--9--9----9--9--9--9--|--L--9--9----9--9--9--7--|--L------9--L--11---L--4--|
G#|--L--7--7----7--7--7--9--|--L--9--9----9--9--9--7--|--L------9--L--11---L--4--|
D#|----------------------7--|--L--7--7----7--7--7--5--|--L------7--L---9---L--2--|


     Q    Q    E  E  E  E     E  E  Q    E  E  E  E     E  E  Q    E  E  E  E   
D#|------------------------|-------------------------|-------------------------|
A#|------------------------|-------------------------|-------------------------|
F#|---------------------9--|--L--9--9----9--9--9-----|-------------------------|
C#|--L----4----4--4--4--9--|--L--9--9----9--9--9--9--|--L--9--9----9--9--9--7--|
G#|--L----4----4--4--4--7--|--L--7--7----7--7--7--9--|--L--9--9----9--9--9--7--|
D#|--L----2----2--2--2-----|----------------------7--|--L--7--7----7--7--7--5--|


     Q.     E  E   E   E  E     Q    Q    E  E  E  E     Q    Q    E  E  E  E   
D#|--------------------------|------------------------|------------------------|
A#|--------------------------|------------------------|------------------------|
F#|--------------------------|---------------------7--|--L----7----7--7--7-----|
C#|--L------9--L--11---L--4--|--L----4----4--4--4--7--|--L----7----7--7--7--6--|
G#|--L------9--L--11---L--4--|--L----4----4--4--4--5--|--L----5----5--5--5--6--|
D#|--L------7--L---9---L--2--|--L----2----2--2--2-----|---------------------4--|


     E  E  E  E  E  E  E  E     E  E  Q    E  E  E  E     Q    Q    E  E  E  E   
D#|--------------------------|-------------------------|------------------------|
A#|--------------------------|-------------------------|------------------------|
F#|--------------------------|-------------------------|---------------------7--|
C#|--L--6--6--6--6--6--6--5--|--L--5--5----5--5--5--4--|--L----4----4--4--4--7--|
G#|--L--6--6--6--6--6--6--5--|--L--5--5----5--5--5--4--|--L----4----4--4--4--5--|
D#|--L--4--4--4--4--4--4--3--|--L--3--3----3--3--3--2--|--L----2----2--2--2-----|


     Q    Q    E  E  E  E     E  E  E  E  E  E  E  E     E  E  Q    E  E  E  E    
D#|------------------------|--------------------------|--------------------------|
A#|------------------------|--------------------------|--------------------------|
F#|--L----7----7--7--7-----|--------------------------|--------------------------|
C#|--L----7----7--7--7--6--|--L--6--6--6--6--6--6--5--|--L--5--5----5--5--5------|
G#|--L----5----5--5--5--6--|--L--6--6--6--6--6--6--5--|--L--5--5----5--5--5------|
D#|---------------------4--|--L--4--4--4--4--4--4--3--|--L--3--3----3--3--3--1b--|


     Guitar Solo                                                            
     Q           E    E    E    E    E    E       Q    E  E  E  E   E  E    
D#|--------------------------------------------|---------------------------|
A#|--------------------------------------------|---------------------------|
F#|--------------------------------------------|---------------------------|
C#|--------------------------------------------|---------------------------|
G#|--------------------------------------------|---------------------------|
D#|--L-----------1pb--1pb--1pb--1pb--1pb--1pb--|--L----1--1--1--2b--L--1b--|


     Q    E    E    E    E    E    E       Q    E  E  E  E   E  E    
D#|-------------------------------------|---------------------------|
A#|-------------------------------------|---------------------------|
F#|-------------------------------------|---------------------------|
C#|-------------------------------------|---------------------------|
G#|-------------------------------------|---------------------------|
D#|--L----1pb--1pb--1pb--1pb--1pb--1pb--|--L----1--1--1--2b--L--1b--|


     Q    E    E    E    E    E    E       Q    E  E  E  E   E  E    
D#|-------------------------------------|---------------------------|
A#|-------------------------------------|---------------------------|
F#|-------------------------------------|---------------------------|
C#|-------------------------------------|---------------------------|
G#|-------------------------------------|---------------------------|
D#|--L----1pb--1pb--1pb--1pb--1pb--1pb--|--L----1--1--1--2b--L--1b--|


     Q    E    E    E    E    E    E       Q    E  E  E  E   E  E    
D#|-------------------------------------|---------------------------|
A#|-------------------------------------|---------------------------|
F#|-------------------------------------|---------------------------|
C#|-------------------------------------|---------------------------|
G#|-------------------------------------|---------------------------|
D#|--L----1pb--1pb--1pb--1pb--1pb--1pb--|--L----1--1--1--2b--L--1b--|


   [Verse 3]
     Q       E    E    E    E    E    E       Q    E  E  E  E   E  E    
D#|----------------------------------------|---------------------------|
A#|----------------------------------------|---------------------------|
F#|----------------------------------------|---------------------------|
C#|----------------------------------------|---------------------------|
G#|----------------------------------------|---------------------------|
D#|--L-------1pb--1pb--1pb--1pb--1pb--1pb--|--L----1--1--1--2b--L--1b--|


     Q    E    E    E    E    E    E       Q    E  E  E  E   E  E    
D#|-------------------------------------|---------------------------|
A#|-------------------------------------|---------------------------|
F#|-------------------------------------|---------------------------|
C#|-------------------------------------|---------------------------|
G#|-------------------------------------|---------------------------|
D#|--L----1pb--1pb--1pb--1pb--1pb--1pb--|--L----1--1--1--2b--L--1b--|


     Q    E    E    E    E    E    E       Q    E  E  E  E   E  E    
D#|-------------------------------------|---------------------------|
A#|-------------------------------------|---------------------------|
F#|-------------------------------------|---------------------------|
C#|-------------------------------------|---------------------------|
G#|-------------------------------------|---------------------------|
D#|--L----1pb--1pb--1pb--1pb--1pb--1pb--|--L----1--1--1--2b--L--1b--|


   [Chorus 3]
     Q    E    E    E    E    E    E       Q    E  E  E  E   E  E     Q        Q    E  E  E  E   
D#|-------------------------------------|--------------------------|----------------------------|
A#|-------------------------------------|--------------------------|----------------------------|
F#|-------------------------------------|--------------------------|-------------------------9--|
C#|-------------------------------------|-----------------------4--|--L--------4----4--4--4--9--|
G#|-------------------------------------|-----------------------4--|--L--------4----4--4--4--7--|
D#|--L----1pb--1pb--1pb--1pb--1pb--1pb--|--L----1--1--1--2b--L--2--|--L--------2----2--2--2-----|


     E  E  Q    E  E  E  E     E  E  Q    E  E  E  E     Q.     E  E   E   E  E   
D#|-------------------------|-------------------------|--------------------------|
A#|-------------------------|-------------------------|--------------------------|
F#|--L--9--9----9--9--9-----|-------------------------|--------------------------|
C#|--L--9--9----9--9--9--9--|--L--9--9----9--9--9--7--|--L------9--L--11---L--4--|
G#|--L--7--7----7--7--7--9--|--L--9--9----9--9--9--7--|--L------9--L--11---L--4--|
D#|----------------------7--|--L--7--7----7--7--7--5--|--L------7--L---9---L--2--|


     Q    Q    E  E  E  E     E  E  Q    E  E  E  E     E  E  Q    E  E  E  E   
D#|------------------------|-------------------------|-------------------------|
A#|------------------------|-------------------------|-------------------------|
F#|---------------------9--|--L--9--9----9--9--9-----|-------------------------|
C#|--L----4----4--4--4--9--|--L--9--9----9--9--9--9--|--L--9--9----9--9--9--7--|
G#|--L----4----4--4--4--7--|--L--7--7----7--7--7--9--|--L--9--9----9--9--9--7--|
D#|--L----2----2--2--2-----|----------------------7--|--L--7--7----7--7--7--5--|


     Q.     E  E   E   E  E     Q    Q    E  E  E  E     Q    Q    E  E  E  E   
D#|--------------------------|------------------------|------------------------|
A#|--------------------------|------------------------|------------------------|
F#|--------------------------|---------------------7--|--L----7----7--7--7-----|
C#|--L------9--L--11---L--4--|--L----4----4--4--4--7--|--L----7----7--7--7--6--|
G#|--L------9--L--11---L--4--|--L----4----4--4--4--5--|--L----5----5--5--5--6--|
D#|--L------7--L---9---L--2--|--L----2----2--2--2-----|---------------------4--|


     E  E  E  E  E  E  E  E     E  E  Q    E  E  E  E     Q    Q    E  E  E  E   
D#|--------------------------|-------------------------|------------------------|
A#|--------------------------|-------------------------|------------------------|
F#|--------------------------|-------------------------|---------------------7--|
C#|--L--6--6--6--6--6--6--5--|--L--5--5----5--5--5--4--|--L----4----4--4--4--7--|
G#|--L--6--6--6--6--6--6--5--|--L--5--5----5--5--5--4--|--L----4----4--4--4--5--|
D#|--L--4--4--4--4--4--4--3--|--L--3--3----3--3--3--2--|--L----2----2--2--2-----|


     Q    Q    E  E  E  E     E  E  E  E  E  E  E  E     E  E  Q    E  E  E  E   
D#|------------------------|--------------------------|-------------------------|
A#|------------------------|--------------------------|-------------------------|
F#|--L----7----7--7--7-----|--------------------------|-------------------------|
C#|--L----7----7--7--7--6--|--L--6--6--6--6--6--6--5--|--L--5--5----5--5--5--4--|
G#|--L----5----5--5--5--6--|--L--6--6--6--6--6--6--5--|--L--5--5----5--5--5--4--|
D#|---------------------4--|--L--4--4--4--4--4--4--3--|--L--3--3----3--3--3--2--|


     Q    Q    E  E  E  E     Q    Q    E  E  E  E     E  E  E  E  E  E  E  E   
D#|------------------------|------------------------|--------------------------|
A#|------------------------|------------------------|--------------------------|
F#|---------------------7--|--L----7----7--7--7-----|--------------------------|
C#|--L----4----4--4--4--7--|--L----7----7--7--7--6--|--L--6--6--6--6--6--6--5--|
G#|--L----4----4--4--4--5--|--L----5----5--5--5--6--|--L--6--6--6--6--6--6--5--|
D#|--L----2----2--2--2-----|---------------------4--|--L--4--4--4--4--4--4--3--|


     E  E  Q    E  E  E  E     Q    Q    E  E  E  E     Q    Q    E  E  E  E   
D#|-------------------------|------------------------|------------------------|
A#|-------------------------|------------------------|------------------------|
F#|-------------------------|---------------------7--|--L----7----7--7--7-----|
C#|--L--5--5----5--5--5--4--|--L----4----4--4--4--7--|--L----7----7--7--7--6--|
G#|--L--5--5----5--5--5--4--|--L----4----4--4--4--5--|--L----5----5--5--5--6--|
D#|--L--3--3----3--3--3--2--|--L----2----2--2--2-----|---------------------4--|


   [Outro]
     E  E  E  E  E  E  E  E     E  E  Q    E  E  E  E      Q     E    E    E    E    E    E     
D#|--------------------------|--------------------------|--------------------------------------|
A#|--------------------------|--------------------------|--------------------------------------|
F#|--------------------------|--------------------------|--------------------------------------|
C#|--L--6--6--6--6--6--6--5--|--L--5--5----5--5--5------|--------------------------------------|
G#|--L--6--6--6--6--6--6--5--|--L--5--5----5--5--5------|--------------------------------------|
D#|--L--4--4--4--4--4--4--3--|--L--3--3----3--3--3--1b--|--L-----1pb--1pb--1pb--1pb--1pb--1pb--|


     Q    E  E  E  E   E  E      Q    E    E    E    E    E    E       Q    E  E  E  E   E  E    
D#|---------------------------|-------------------------------------|---------------------------|
A#|---------------------------|-------------------------------------|---------------------------|
F#|---------------------------|-------------------------------------|---------------------------|
C#|---------------------------|-------------------------------------|---------------------------|
G#|---------------------------|-------------------------------------|---------------------------|
D#|--L----1--1--1--2b--L--1b--|--L----1pb--1pb--1pb--1pb--1pb--1pb--|--L----1--1--1--2b--L--1b--|


     Q    E    E    E    E    E    E       Q    E  E  E  E   E  E    
D#|-------------------------------------|---------------------------|
A#|-------------------------------------|---------------------------|
F#|-------------------------------------|---------------------------|
C#|-------------------------------------|---------------------------|
G#|-------------------------------------|---------------------------|
D#|--L----1pb--1pb--1pb--1pb--1pb--1pb--|--L----1--1--1--2b--L--1b--|


     Q    E    E    E    E    E    E       Q    E  E  E  E   Q       W                  
D#|-------------------------------------|-------------------------|-------------------||
A#|-------------------------------------|-------------------------|-------------------||
F#|-------------------------------------|-------------------------|-------------------||
C#|-------------------------------------|-------------------------|-------------------||
G#|-------------------------------------|-------------------------|-------------------||
D#|--L----1pb--1pb--1pb--1pb--1pb--1pb--|--L----1--1--1--3b-------|-------------------||




Rhythm Guitar - Drop D
[Intro]
     H        Q    E  E      Q    E    E    E    E    E    E       Q    E  E  E  E   E  E    
D#|-----------------------|-------------------------------------|---------------------------|
A#|-----------------------|-------------------------------------|---------------------------|
F#|-----------------------|-------------------------------------|---------------------------|
C#|-----------------------|-------------------------------------|---------------------------|
G#|-----------------------|-------------------------------------|---------------------------|
D#|-------------------2b--|--L----2pb--2pb--2pb--2pb--2pb--2pb--|--L----2--2--2--2b--L--2b--|


     Q    E    E    E    E    E    E       Q    E  E  E  E   E  E    
D#|-------------------------------------|---------------------------|
A#|-------------------------------------|---------------------------|
F#|-------------------------------------|---------------------------|
C#|-------------------------------------|---------------------------|
G#|-------------------------------------|---------------------------|
D#|--L----2pb--2pb--2pb--2pb--2pb--2pb--|--L----2--2--2--2b--L--2b--|


     Q    E    E    E    E    E    E       Q    E  E  E  E   E  E    
D#|-------------------------------------|---------------------------|
A#|-------------------------------------|---------------------------|
F#|-------------------------------------|---------------------------|
C#|-------------------------------------|---------------------------|
G#|-------------------------------------|---------------------------|
D#|--L----2pb--2pb--2pb--2pb--2pb--2pb--|--L----2--2--2--2b--L--2b--|


     Q    E    E    E    E    E    E       Q    E  E  E  E   E  E    
D#|-------------------------------------|---------------------------|
A#|-------------------------------------|---------------------------|
F#|-------------------------------------|---------------------------|
C#|-------------------------------------|---------------------------|
G#|-------------------------------------|---------------------------|
D#|--L----2pb--2pb--2pb--2pb--2pb--2pb--|--L----2--2--2--2b--L--2b--|


     Q    E    E    E    E    E    E       Q    E  E  E  E   E  E    
D#|-------------------------------------|---------------------------|
A#|-------------------------------------|---------------------------|
F#|-------------------------------------|---------------------------|
C#|-------------------------------------|---------------------------|
G#|-------------------------------------|---------------------------|
D#|--L----2pb--2pb--2pb--2pb--2pb--2pb--|--L----2--2--2--2b--L--2b--|


     Q    E    E    E    E    E    E       Q    E  E  E  E   E  E    
D#|-------------------------------------|---------------------------|
A#|-------------------------------------|---------------------------|
F#|-------------------------------------|---------------------------|
C#|-------------------------------------|---------------------------|
G#|-------------------------------------|---------------------------|
D#|--L----2pb--2pb--2pb--2pb--2pb--2pb--|--L----2--2--2--2b--L--2b--|


     Q    E    E    E    E    E    E       Q    E  E  E  E   E  E    
D#|-------------------------------------|---------------------------|
A#|-------------------------------------|---------------------------|
F#|-------------------------------------|---------------------------|
C#|-------------------------------------|---------------------------|
G#|-------------------------------------|---------------------------|
D#|--L----2pb--2pb--2pb--2pb--2pb--2pb--|--L----2--2--2--2b--L--2b--|


     Q    E    E    E    E    E    E       Q    E  E  E  E   E  E    
D#|-------------------------------------|---------------------------|
A#|-------------------------------------|---------------------------|
F#|-------------------------------------|---------------------------|
C#|-------------------------------------|---------------------------|
G#|-------------------------------------|---------------------------|
D#|--L----2pb--2pb--2pb--2pb--2pb--2pb--|--L----2--2--2--2b--L--2b--|


   [Verse 1]
     Q       E    E    E    E    E    E       Q    E  E  E  E   E  E    
D#|----------------------------------------|---------------------------|
A#|----------------------------------------|---------------------------|
F#|----------------------------------------|---------------------------|
C#|----------------------------------------|---------------------------|
G#|----------------------------------------|---------------------------|
D#|--L-------2pb--2pb--2pb--2pb--2pb--2pb--|--L----2--2--2--2b--L--2b--|


     Q    E    E    E    E    E    E       Q    E  E  E  E   E  E    
D#|-------------------------------------|---------------------------|
A#|-------------------------------------|---------------------------|
F#|-------------------------------------|---------------------------|
C#|-------------------------------------|---------------------------|
G#|-------------------------------------|---------------------------|
D#|--L----2pb--2pb--2pb--2pb--2pb--2pb--|--L----2--2--2--2b--L--2b--|


     Q    E    E    E    E    E    E       Q    E  E  E  E   E  E    
D#|-------------------------------------|---------------------------|
A#|-------------------------------------|---------------------------|
F#|-------------------------------------|---------------------------|
C#|-------------------------------------|---------------------------|
G#|-------------------------------------|---------------------------|
D#|--L----2pb--2pb--2pb--2pb--2pb--2pb--|--L----2--2--2--2b--L--2b--|


   [Chorus 1]
     Q    E    E    E    E    E    E       Q    E  E  E  E   E  E     Q        Q    E  E  E  E   
D#|-------------------------------------|--------------------------|----------------------------|
A#|-------------------------------------|--------------------------|----------------------------|
F#|-------------------------------------|--------------------------|-------------------------8--|
C#|-------------------------------------|-----------------------3--|--L--------3----3--3--3--8--|
G#|-------------------------------------|-----------------------3--|--L--------3----3--3--3--6--|
D#|--L----2pb--2pb--2pb--2pb--2pb--2pb--|--L----2--2--2--2b--L--3--|--L--------3----3--3--3-----|


     E  E  Q    E  E  E  E     E  E  Q    E  E  E  E     Q.     E  E   E   E  E   
D#|-------------------------|-------------------------|--------------------------|
A#|-------------------------|-------------------------|--------------------------|
F#|--L--8--8----8--8--8-----|-------------------------|--------------------------|
C#|--L--8--8----8--8--8--8--|--L--8--8----8--8--8--6--|--L------8--L--10---L--3--|
G#|--L--6--6----6--6--6--8--|--L--8--8----8--8--8--6--|--L------8--L--10---L--3--|
D#|----------------------8--|--L--8--8----8--8--8--6--|--L------8--L--10---L--3--|


     Q    Q    E  E  E  E     E  E  Q    E  E  E  E     E  E  Q    E  E  E  E   
D#|------------------------|-------------------------|-------------------------|
A#|------------------------|-------------------------|-------------------------|
F#|---------------------8--|--L--8--8----8--8--8-----|-------------------------|
C#|--L----3----3--3--3--8--|--L--8--8----8--8--8--8--|--L--8--8----8--8--8--6--|
G#|--L----3----3--3--3--6--|--L--6--6----6--6--6--8--|--L--8--8----8--8--8--6--|
D#|--L----3----3--3--3-----|----------------------8--|--L--8--8----8--8--8--6--|


     Q.     E  E   E   E  E      Q    E    E    E    E    E    E       Q    E  E  E  E   E  E    
D#|---------------------------|-------------------------------------|---------------------------|
A#|---------------------------|-------------------------------------|---------------------------|
F#|---------------------------|-------------------------------------|---------------------------|
C#|--L------8--L--10---L------|-------------------------------------|---------------------------|
G#|--L------8--L--10---L------|-------------------------------------|---------------------------|
D#|--L------8--L--10---L--2b--|--L----2pb--2pb--2pb--2pb--2pb--2pb--|--L----2--2--2--2b--L--2b--|


     Q    E    E    E    E    E    E       Q    E  E  E  E   E  E    
D#|-------------------------------------|---------------------------|
A#|-------------------------------------|---------------------------|
F#|-------------------------------------|---------------------------|
C#|-------------------------------------|---------------------------|
G#|-------------------------------------|---------------------------|
D#|--L----2pb--2pb--2pb--2pb--2pb--2pb--|--L----2--2--2--2b--L--2b--|


     Q    E    E    E    E    E    E       Q    E  E  E  E   E  E    
D#|-------------------------------------|---------------------------|
A#|-------------------------------------|---------------------------|
F#|-------------------------------------|---------------------------|
C#|-------------------------------------|---------------------------|
G#|-------------------------------------|---------------------------|
D#|--L----2pb--2pb--2pb--2pb--2pb--2pb--|--L----2--2--2--2b--L--2b--|


     Q    E    E    E    E    E    E       Q    E  E  E  E   E  E    
D#|-------------------------------------|---------------------------|
A#|-------------------------------------|---------------------------|
F#|-------------------------------------|---------------------------|
C#|-------------------------------------|---------------------------|
G#|-------------------------------------|---------------------------|
D#|--L----2pb--2pb--2pb--2pb--2pb--2pb--|--L----2--2--2--2b--L--2b--|


   [Verse 2]
     Q       E    E    E    E    E    E       Q    E  E  E  E   E  E    
D#|----------------------------------------|---------------------------|
A#|----------------------------------------|---------------------------|
F#|----------------------------------------|---------------------------|
C#|----------------------------------------|---------------------------|
G#|----------------------------------------|---------------------------|
D#|--L-------2pb--2pb--2pb--2pb--2pb--2pb--|--L----2--2--2--2b--L--2b--|


     Q    E    E    E    E    E    E       Q    E  E  E  E   E  E    
D#|-------------------------------------|---------------------------|
A#|-------------------------------------|---------------------------|
F#|-------------------------------------|---------------------------|
C#|-------------------------------------|---------------------------|
G#|-------------------------------------|---------------------------|
D#|--L----2pb--2pb--2pb--2pb--2pb--2pb--|--L----2--2--2--2b--L--2b--|


     Q    E    E    E    E    E    E       Q    E  E  E  E   E  E    
D#|-------------------------------------|---------------------------|
A#|-------------------------------------|---------------------------|
F#|-------------------------------------|---------------------------|
C#|-------------------------------------|---------------------------|
G#|-------------------------------------|---------------------------|
D#|--L----2pb--2pb--2pb--2pb--2pb--2pb--|--L----2--2--2--2b--L--2b--|


   [Chorus 2]
     Q    E    E    E    E    E    E       Q    E  E  E  E   E  E     Q        Q    E  E  E  E   
D#|-------------------------------------|--------------------------|----------------------------|
A#|-------------------------------------|--------------------------|----------------------------|
F#|-------------------------------------|--------------------------|-------------------------8--|
C#|-------------------------------------|-----------------------3--|--L--------3----3--3--3--8--|
G#|-------------------------------------|-----------------------3--|--L--------3----3--3--3--6--|
D#|--L----2pb--2pb--2pb--2pb--2pb--2pb--|--L----2--2--2--2b--L--3--|--L--------3----3--3--3-----|


     E  E  Q    E  E  E  E     E  E  Q    E  E  E  E     Q.     E  E   E   E  E   
D#|-------------------------|-------------------------|--------------------------|
A#|-------------------------|-------------------------|--------------------------|
F#|--L--8--8----8--8--8-----|-------------------------|--------------------------|
C#|--L--8--8----8--8--8--8--|--L--8--8----8--8--8--6--|--L------8--L--10---L--3--|
G#|--L--6--6----6--6--6--8--|--L--8--8----8--8--8--6--|--L------8--L--10---L--3--|
D#|----------------------8--|--L--8--8----8--8--8--6--|--L------8--L--10---L--3--|


     Q    Q    E  E  E  E     E  E  Q    E  E  E  E     E  E  Q    E  E  E  E   
D#|------------------------|-------------------------|-------------------------|
A#|------------------------|-------------------------|-------------------------|
F#|---------------------8--|--L--8--8----8--8--8-----|-------------------------|
C#|--L----3----3--3--3--8--|--L--8--8----8--8--8--8--|--L--8--8----8--8--8--6--|
G#|--L----3----3--3--3--6--|--L--6--6----6--6--6--8--|--L--8--8----8--8--8--6--|
D#|--L----3----3--3--3-----|----------------------8--|--L--8--8----8--8--8--6--|


     E  E  E  E  E   E   E   E     Q    Q    E  E  E  E     Q    Q    E  E  E  E   
D#|-----------------------------|------------------------|------------------------|
A#|-----------------------------|------------------------|------------------------|
F#|-----------------------------|---------------------6--|--L----6----6--6--6-----|
C#|--L--6--6--8--L--10---L\--3--|--L----3----3--3--3--6--|--L----6----6--6--6--5--|
G#|--L--6--6--8--L--10---L\--3--|--L----3----3--3--3--4--|--L----4----4--4--4--5--|
D#|--L--6--6--8--L--10---L\--3--|--L----3----3--3--3-----|---------------------5--|


     E  E  E  E  E  E  E  E     E  E  Q    E  E  E  E     Q    Q    E  E  E  E   
D#|--------------------------|-------------------------|------------------------|
A#|--------------------------|-------------------------|------------------------|
F#|--------------------------|-------------------------|---------------------6--|
C#|--L--5--5--5--5--5--5--4--|--L--4--4----4--4--4--3--|--L----3----3--3--3--6--|
G#|--L--5--5--5--5--5--5--4--|--L--4--4----4--4--4--3--|--L----3----3--3--3--4--|
D#|--L--5--5--5--5--5--5--4--|--L--4--4----4--4--4--3--|--L----3----3--3--3-----|


     Q    Q    E  E  E  E     E  E  Q    E  E  E  E     E  E  Q    E  E  E  E    
D#|------------------------|-------------------------|--------------------------|
A#|------------------------|-------------------------|--------------------------|
F#|--L----6----6--6--6-----|-------------------------|--------------------------|
C#|--L----6----6--6--6--5--|--L--5--5----5--5--5--4--|--L--4--4----4--4--4------|
G#|--L----4----4--4--4--5--|--L--5--5----5--5--5--4--|--L--4--4----4--4--4------|
D#|---------------------5--|--L--5--5----5--5--5--4--|--L--4--4----4--4--4--2b--|


     Guitar Solo                                                            
     Q           E    E    E    E    E    E       Q    E  E  E  E   E  E    
D#|--------------------------------------------|---------------------------|
A#|--------------------------------------------|---------------------------|
F#|--------------------------------------------|---------------------------|
C#|--------------------------------------------|---------------------------|
G#|--------------------------------------------|---------------------------|
D#|--L-----------2pb--2pb--2pb--2pb--2pb--2pb--|--L----2--2--2--2b--L--2b--|


     Q    E    E    E    E    E    E       Q    E  E  E  E   E  E    
D#|-------------------------------------|---------------------------|
A#|-------------------------------------|---------------------------|
F#|-------------------------------------|---------------------------|
C#|-------------------------------------|---------------------------|
G#|-------------------------------------|---------------------------|
D#|--L----2pb--2pb--2pb--2pb--2pb--2pb--|--L----2--2--2--2b--L--2b--|


     Q    E    E    E    E    E    E       Q    E  E  E  E   E  E    
D#|-------------------------------------|---------------------------|
A#|-------------------------------------|---------------------------|
F#|-------------------------------------|---------------------------|
C#|-------------------------------------|---------------------------|
G#|-------------------------------------|---------------------------|
D#|--L----2pb--2pb--2pb--2pb--2pb--2pb--|--L----2--2--2--2b--L--2b--|


     Q    E    E    E    E    E    E       Q    E  E  E  E   E  E    
D#|-------------------------------------|---------------------------|
A#|-------------------------------------|---------------------------|
F#|-------------------------------------|---------------------------|
C#|-------------------------------------|---------------------------|
G#|-------------------------------------|---------------------------|
D#|--L----2pb--2pb--2pb--2pb--2pb--2pb--|--L----2--2--2--2b--L--2b--|


   [Verse 3]
     Q       E    E    E    E    E    E       Q    E  E  E  E   E  E    
D#|----------------------------------------|---------------------------|
A#|----------------------------------------|---------------------------|
F#|----------------------------------------|---------------------------|
C#|----------------------------------------|---------------------------|
G#|----------------------------------------|---------------------------|
D#|--L-------2pb--2pb--2pb--2pb--2pb--2pb--|--L----2--2--2--2b--L--2b--|


     Q    E    E    E    E    E    E       Q    E  E  E  E   E  E    
D#|-------------------------------------|---------------------------|
A#|-------------------------------------|---------------------------|
F#|-------------------------------------|---------------------------|
C#|-------------------------------------|---------------------------|
G#|-------------------------------------|---------------------------|
D#|--L----2pb--2pb--2pb--2pb--2pb--2pb--|--L----2--2--2--2b--L--2b--|


     Q    E    E    E    E    E    E       Q    E  E  E  E   E  E    
D#|-------------------------------------|---------------------------|
A#|-------------------------------------|---------------------------|
F#|-------------------------------------|---------------------------|
C#|-------------------------------------|---------------------------|
G#|-------------------------------------|---------------------------|
D#|--L----2pb--2pb--2pb--2pb--2pb--2pb--|--L----2--2--2--2b--L--2b--|


   [Chorus 3]
     Q    E    E    E    E    E    E       Q    E  E  E  E   E  E     Q        Q    E  E  E  E   
D#|-------------------------------------|--------------------------|----------------------------|
A#|-------------------------------------|--------------------------|----------------------------|
F#|-------------------------------------|--------------------------|-------------------------8--|
C#|-------------------------------------|-----------------------3--|--L--------3----3--3--3--8--|
G#|-------------------------------------|-----------------------3--|--L--------3----3--3--3--6--|
D#|--L----2pb--2pb--2pb--2pb--2pb--2pb--|--L----2--2--2--2b--L--3--|--L--------3----3--3--3-----|


     E  E  Q    E  E  E  E     E  E  Q    E  E  E  E     Q.     E  E   E   E  E   
D#|-------------------------|-------------------------|--------------------------|
A#|-------------------------|-------------------------|--------------------------|
F#|--L--8--8----8--8--8-----|-------------------------|--------------------------|
C#|--L--8--8----8--8--8--8--|--L--8--8----8--8--8--6--|--L------8--L--10---L--3--|
G#|--L--6--6----6--6--6--8--|--L--8--8----8--8--8--6--|--L------8--L--10---L--3--|
D#|----------------------8--|--L--8--8----8--8--8--6--|--L------8--L--10---L--3--|


     Q    Q    E  E  E  E     E  E  Q    E  E  E  E     E  E  Q    E  E  E  E   
D#|------------------------|-------------------------|-------------------------|
A#|------------------------|-------------------------|-------------------------|
F#|---------------------8--|--L--8--8----8--8--8-----|-------------------------|
C#|--L----3----3--3--3--8--|--L--8--8----8--8--8--8--|--L--8--8----8--8--8--6--|
G#|--L----3----3--3--3--6--|--L--6--6----6--6--6--8--|--L--8--8----8--8--8--6--|
D#|--L----3----3--3--3-----|----------------------8--|--L--8--8----8--8--8--6--|


     E  E  E  E  E   E   E   E     Q    Q    E  E  E  E     Q    Q    E  E  E  E   
D#|-----------------------------|------------------------|------------------------|
A#|-----------------------------|------------------------|------------------------|
F#|-----------------------------|---------------------6--|--L----6----6--6--6-----|
C#|--L--6--6--8--L--10--10---3--|--L----3----3--3--3--6--|--L----6----6--6--6--5--|
G#|--L--6--6--8--L--10---L\--3--|--L----3----3--3--3--4--|--L----4----4--4--4--5--|
D#|--L--6--6--8--L--10---L\--3--|--L----3----3--3--3-----|---------------------5--|


     E  E  E  E  E  E  E  E     E  E  Q    E  E  E  E     Q    Q    E  E  E  E   
D#|--------------------------|-------------------------|------------------------|
A#|--------------------------|-------------------------|------------------------|
F#|--------------------------|-------------------------|---------------------6--|
C#|--L--5--5--5--5--5--5--4--|--L--4--4----4--4--4--3--|--L----3----3--3--3--6--|
G#|--L--5--5--5--5--5--5--4--|--L--4--4----4--4--4--3--|--L----3----3--3--3--4--|
D#|--L--5--5--5--5--5--5--4--|--L--4--4----4--4--4--3--|--L----3----3--3--3-----|


     Q    Q    E  E  E  E     E  E  Q    E  E  E  E     E  E  Q    E  E  E  E   
D#|------------------------|-------------------------|-------------------------|
A#|------------------------|-------------------------|-------------------------|
F#|--L----6----6--6--6-----|-------------------------|-------------------------|
C#|--L----6----6--6--6--5--|--L--5--5----5--5--5--4--|--L--4--4----4--4--4--3--|
G#|--L----4----4--4--4--5--|--L--5--5----5--5--5--4--|--L--4--4----4--4--4--3--|
D#|---------------------5--|--L--5--5----5--5--5--4--|--L--4--4----4--4--4--3--|


     Q    Q    E  E  E  E     Q    Q    E  E  E  E     E  E  E  E  E  E  E  E   
D#|------------------------|------------------------|--------------------------|
A#|------------------------|------------------------|--------------------------|
F#|---------------------6--|--L----6----6--6--6-----|--------------------------|
C#|--L----3----3--3--3--6--|--L----6----6--6--6--5--|--L--5--5--5--5--5--5--4--|
G#|--L----3----3--3--3--4--|--L----4----4--4--4--5--|--L--5--5--5--5--5--5--4--|
D#|--L----3----3--3--3-----|---------------------5--|--L--5--5--5--5--5--5--4--|


     E  E  Q    E  E  E  E     Q    Q    E  E  E  E     Q    Q    E  E  E  E   
D#|-------------------------|------------------------|------------------------|
A#|-------------------------|------------------------|------------------------|
F#|-------------------------|---------------------6--|--L----6----6--6--6-----|
C#|--L--4--4----4--4--4--3--|--L----3----3--3--3--6--|--L----6----6--6--6--5--|
G#|--L--4--4----4--4--4--3--|--L----3----3--3--3--4--|--L----4----4--4--4--5--|
D#|--L--4--4----4--4--4--3--|--L----3----3--3--3-----|---------------------5--|


   [Outro]
     E  E  Q    E  E  E  E     E  E  Q    E  E  E  E      Q     E    E    E    E    E    E     
D#|-------------------------|--------------------------|--------------------------------------|
A#|-------------------------|--------------------------|--------------------------------------|
F#|-------------------------|--------------------------|--------------------------------------|
C#|--L--5--5----5--5--5--4--|--L--4--4----4--4--4------|--------------------------------------|
G#|--L--5--5----5--5--5--4--|--L--4--4----4--4--4------|--------------------------------------|
D#|--L--5--5----5--5--5--4--|--L--4--4----4--4--4--2b--|--L-----2pb--2pb--2pb--2pb--2pb--2pb--|


     Q    E  E  E  E   E  E      Q    E    E    E    E    E    E       Q    E  E  E  E   E  E    
D#|---------------------------|-------------------------------------|---------------------------|
A#|---------------------------|-------------------------------------|---------------------------|
F#|---------------------------|-------------------------------------|---------------------------|
C#|---------------------------|-------------------------------------|---------------------------|
G#|---------------------------|-------------------------------------|---------------------------|
D#|--L----2--2--2--2b--L--2b--|--L----2pb--2pb--2pb--2pb--2pb--2pb--|--L----2--2--2--2b--L--2b--|


     Q    E    E    E    E    E    E       Q    E  E  E  E   E  E    
D#|-------------------------------------|---------------------------|
A#|-------------------------------------|---------------------------|
F#|-------------------------------------|---------------------------|
C#|-------------------------------------|---------------------------|
G#|-------------------------------------|---------------------------|
D#|--L----2pb--2pb--2pb--2pb--2pb--2pb--|--L----2--2--2--2b--L--2b--|


     Q    E    E    E    E    E    E       Q    E  E  E  E   Q      
D#|-------------------------------------|-------------------------||
A#|-------------------------------------|-------------------------||
F#|-------------------------------------|-------------------------||
C#|-------------------------------------|-------------------------||
G#|-------------------------------------|-------------------------||
D#|--L----2pb--2pb--2pb--2pb--2pb--2pb--|--L----2--2--2--2b-------||





   Lead Guitar
     m.30                                                                              
     W                   W                   W                   H        Q    E  E    
D#|-------------------|-------------------|-------------------|-----------------------|
A#|-------------------|-------------------|-------------------|-----------------------|
F#|-------------------|-------------------|-------------------|-----------------------|
C#|-------------------|-------------------|-------------------|-------------------9b--|
G#|-------------------|-------------------|-------------------|-----------------------|
D#|-------------------|-------------------|-------------------|-----------------------|


     Q    E    E    E    E    E    E       Q    Q     E   E   E   E    
D#|-------------------------------------|-----------------------------|
A#|-------------------------------------|-----------------------------|
F#|-------------------------------------|-----------------------------|
C#|--L----9pb--9pb--9pb--9pb--9pb--9pb--|--L----9~----9~--9~--9~--9b--|
G#|-------------------------------------|-----------------------------|
D#|-------------------------------------|-----------------------------|


     Q    E    E    E    E    E    E       Q    Q     E   E  E    E       E   S  S  H.            
D#|-------------------------------------|-----------------------------|--------------------------|
A#|-------------------------------------|-----------------------------|--------------------------|
F#|-------------------------------------|------------------------10b--|---L---Lp-8---------------|
C#|--L----9pb--9pb--9pb--9pb--9pb--9pb--|--L----9~----9~--9--9~-------|--------------------------|
G#|-------------------------------------|-----------------------------|------------11------------|
D#|-------------------------------------|-----------------------------|--------------------------|


      W                    W                    H         E   E   E   E       W                 
D#|--------------------|--------------------|-----------------------------|--------------------|
A#|--------------------|--------------------|-----------------------------|--------------------|
F#|--------------------|--------------------|--------------------13--13b--|---L----------------|
C#|--------------------|--------------------|-----------------------------|--------------------|
G#|---L----------------|---L----------------|---L---------L--11-----------|--------------------|
D#|--------------------|--------------------|-----------------------------|--------------------|


      W                   W                   W                   W                 
D#|--------------------|-------------------|-------------------|-------------------|
A#|--------------------|-------------------|-------------------|-------------------|
F#|---L----------------|-------------------|-------------------|-------------------|
C#|--------------------|-------------------|-------------------|-------------------|
G#|--------------------|-------------------|-------------------|-------------------|
D#|--------------------|-------------------|-------------------|-------------------|


     m.62                                                                             
     W                   W                   W                   H        Q    E  E   
D#|-------------------|-------------------|-------------------|----------------------|
A#|-------------------|-------------------|-------------------|----------------------|
F#|-------------------|-------------------|-------------------|----------------------|
C#|-------------------|-------------------|-------------------|----------------------|
G#|-------------------|-------------------|-------------------|-------------------8--|
D#|-------------------|-------------------|-------------------|----------------------|


     Guitar Solo                                                     
     E           E  E  E  E  E  E   E      E   E   E  E  Q.      E   
D#|------------------------------------|----------------------------|
A#|------------------------------------|----------------------------|
F#|------------------------------------|------------------------11--|
C#|--------------9--9--------------10--|---L--10--10--9--L----------|
G#|--L-----------------8--8--8--8------|-------------------------9--|
D#|--------------------------------10--|---L--10--10--9--L----------|


      E   E   E   E   E   E   E   E      E   E   E  E  E  E  E   E       E   E  E   E   Q.      E    
D#|----------------------------------|-------------------------------|------------------------------|
A#|----------------------------------|-------------------------------|------------------------------|
F#|---L--11--11--10---L--10--10------|--------------------------10b--|---L--10--8-------------------|
C#|------------------------------10--|---L--10--10--9--L--9--9-------|-------------10--10~------9b--|
G#|---L---9---9---8---L---8---8------|-------------------------------|------------------------------|
D#|------------------------------10--|---L--10--10--9--L--9--9-------|------------------------------|


                                               tap at 20th fret                 
                                               T                T    T    T     
     E  E  E  E  S  S  S  S E  E      H        E                E    E    E     
D#|--------------------------------|-------------------------------------------|
A#|--------------------------------|-------------------------------------------|
F#|--------------------------------|-------------------------------------------|
C#|--L--9--8--6--8h-9p-8p-6-8--8b--|--L--------8pb--------------8pb--8pb--8pb--|
G#|--------------------------------|-------------------------------------------|
D#|--------------------------------|-------------------------------------------|


     H.           S  S  E     W                   W                   W                 
D#|------------------------|-------------------|-------------------|-------------------|
A#|------------------------|-------------------|-------------------|-------------------|
F#|------------------------|-------------------|-------------------|-------------------|
C#|--L------------6h-8p-6--|--L----------------|--L----------------|-------------------|
G#|------------------------|-------------------|-------------------|-------------------|
D#|------------------------|-------------------|-------------------|-------------------|



     Outro - m.106                                                                              
     E             E  E  E  E  E  E   E      Q.     E  Q.     E     E  E  E  E   E   E  E   E   
D#|--------------------------------------|-----------------------|-----------------------------|
A#|--------------------------------------|-----------------------|-----------------------------|
F#|--------------------------------------|-----------------------|-----------------------------|
C#|----------------------------------10--|---L------9--L------9--|--L--9--9----------------10--|
G#|----------------8--8--8--8--8--8------|-----------------------|-----------8~--L~--8--8------|
D#|----------------------------------10--|---L------9--L------9--|--L--9--9----------------10--|


      E   E   E  E  Q.      E      E   E   E   E   H            E   E   E  E  Q.      E   
D#|----------------------------|----------------------------|----------------------------|
A#|----------------------------|----------------------------|----------------------------|
F#|------------------------11--|---L--11--11--10---L--------|------------------------11--|
C#|--10--10--10--9--L----------|----------------------------|--10--10--10--9--L----------|
G#|-------------------------9--|---L---9---9---8---L--------|-------------------------9--|
D#|--10--10--10--9--L----------|----------------------------|--10--10--10--9--L----------|


      E   E   E   E   Q.      E      E   E   E  E  H          
D#|------------------------------|--------------------------||
A#|------------------------------|--------------------------||
F#|---L--11--11--10---L----------|--------------------------||
C#|--------------------------10--|--10--10--10--9-----------||
G#|---L---9---9---8---L----------|--------------------------||
D#|--------------------------10--|--10--10--10--9-----------||



Duration Legend
---------------
W - whole
H - half
Q - quarter
E - 8th
S - 16th
T - 32nd
X - 64th
. - note dotted
|-n-|  - n-tuplets


Tablature Legend
----------------
L - tied note
x - dead note
g - grace note
(n) - ghost note
> - accentuded note
NH - natural harmonic
AH - artificial harmonic
TH - tapped harmonic
SH - semi harmonic
PH - pitch harmonic
h - hammer on
p - pull off
b - bend
br - bendRelease
pb - preBend
pbr - preBendRelease
brb - bendReleaseBend
\n/ - tremolo bar dip
\n - tremolo bar dive
-/n - tremolo bar Release up
/n\ - tremolo bar inverted dip
/n - tremolo bar return
-\n - tremolo bar Release down
S - shift slide
s - legato slide
/ -  slide into from below or out of upwards
\ -  slide into from above or out of downwards
~ - vibrato
W - wide vibrato
tr - trill
TP - tremolo picking
T - tapping
S - slap
P - pop
< - fade in
^ - brush up
v - brush down
Suggest correction
comments
print report bad tab
13 comments total. Showing first comments.
+1 reply
antman1385 140 Aug 22, 2009 01:22 PM

sorry, this is really hart to read.

+2 reply
lenny_ibanez_77 10 Sep 04, 2009 12:11 AM

Really good tab!! It's just a bit confusing but I can still figure it out.

0 reply
cooljew 153 Sep 07, 2009 03:49 AM

yeah i wasn't sure about the verse at first but i got it now. not that it matters but i'm pretty sure AIC plays writes/plays all their songs half a step down in Eb, so that would make the verse on the 3rd fret, anyway nice tab.

guest
You may want to rate the tab now too:
select rating
Wanna post a correction for this tab? Suggest correction