Oops, an error
Loading. Please wait.

Check My Brain Tab

version 2
version 2

Whole song

Interactive

Video

39,601 views 21 this week
3 commentsread comments
1 2 3 4 5
accurate
x 7
add to favorites
launch autoscroll
font size
0
reset
how to read this tab
guitar tuner
Autoscroll
slow
fast
+/-
esc
set tempo
stop
Help us to improve Ultimate-Guitar.com Take our survey!
×
Difficulty
Tuning
intermediate
D# G# C# F# A# D#
                            Alice in Chains Check my Brain
Tabbed by:
Email:

Tuning:Eb Ab Db Gb Bb Db

                              Intro X 4 & Verse X 2
e|--------------------------------------------------------------------------|
B|--------------------------------------------------------------------------|
G|--------------------------------------------------------------------------|
D|--------------------------------------------------------------------------|
A|--------------------------------------------------------------------------|
E|--1^hold bend-1-1-1-1-1--1^bend and release 1 1 1 2^----------------------|
     Bend the 1st fret up a 1/4 step and hold bend while picking-

                             ---Chorus X 2-----------------------------------|
e|---------------------------------------------------------------------------|
B|---------------------------------------------------------------------------|
G|-----------------9--9--99-9------------------------------------------------|
D|--5--5--55-5-----9--9--99-9-----9--9--99-9-----7-7/9--9-9/12/9-------------|
A|--5--5--55-5-----7--7--77-7-----9--9--99-9-----7-7/9--9-9/12/9-------------|
E|--3--3--33-3--------------------7--7--77-7-----5-5/7--0-7/10/7-------------|
                            ---Chorus #2 X 2---------------------------------|
e|---------------------------------------------------------------------------|
B|---------------------------------------------------------------------------|
G|-----------------9--9--99-9------------------------------------------------|
D|--4--4--44-4-----9--9--99-9-----9--9--99-9-----7-7/9--9-9/12/9-------------|
A|--4--4--44-4-----7--7--77-7-----9--9--99-9-----7-7/9--9-9/12/9-------------|
E|--2--2--22-2--------------------7--7--77-7-----5-5/7--0-7/10/7-------------|

                            ---Interlude X 2---------------------------------|
e|--2-2-22-2-----------------------------------------------------------------|
B|--3-3-33-3-----------------------------------------------------------------|
G|--2-2-22-2-----------------------------------------------------------------|
D|--0-0-00-0----6--6--66-6---5--5-55-5---4--4--44-4--------------------------|
A|--------------6--6--66-6---5--5-55-5---4--4--44-4--------------------------|
E|--------------4--4--44-4---3--3-33-3---2--2--22-2--------------------------|

Intro; 4 times
Verse: 2 times
Chorus:2 times
Verse: 6 times
Chorus#2: 2 times
Interlude: 2 times
Verse: 6 times
Chorus: 2 times
Interlude: 2 times
Verse: 6 times


| /  slide up
| \  slide down
| h  hammer-on
| p  pull-off
| ~  vibrato
| +  harmonic
| x  Mute note
===============================================================================
Suggest correction
What's this?
You can suggest a correction to this tab. Community and Mods will review your correction and vote to approve or reject it.
comments
print report bad tab
3 comments total.
0 reply
tza 6,932 wrote on September 22 2009, 09:06 am

good ol' guitar world cd lesson. thanks.

+1 reply
sandman-105 1,587 wrote on November 4 2009, 07:45 pm

may be its just me but i think the G5 in the chorus is supposed to be an F#5. It sounds much better to me and it sounds right if you play along with the song

0 reply
sandman-105 1,587 wrote on November 4 2009, 07:45 pm

ay be its just me but i think the G5 in the chorus is supposed to be an F#5. It sounds much better to me and it sounds right if you play along with the song

guest
You may want to rate the tab now too:
select rating
Please do not post tabs as comments. Select "correction" instead!