Oops, an error
Loading. Please wait.

Confusion Bass Tab

version 1
version 1

Whole song

Interactive

1,008 views 3 this week
no commentswrite comment
1 2 3 4 5
please rate
add to favorites
launch autoscroll
font size
0
reset
guitar tuner
Autoscroll
slow
fast
+/-
esc
set tempo
stop
Help us to improve Ultimate-Guitar.com Take our survey!
×
Contributor
guy7bmwm5 1,371
tuning: 1/2 step down

:06
|---------------------------------------------------------|
|---------------------------------------------------------|
|-0/6--66---------6-----------------6--66-----------------|
|-----------7--77---5--0-5-0--1--3----------7--77---5--55-|

:27
|---------------------------------------------------------|
|---------------------------------------------------------|
|-6--66--------------------------6--66--------------------|
|---------7--77---5--55/0--3--5----------7--77---5--55--5-|

:47
|-------------------------------------------------------------|
|-------------------------------------------------------------|
|-6--66----------6----------------2--6--66--------------------|
|---------7--77----5--0--1--3--5-------------7--77---5--05050-|

1:07 x4
|----------------------------|
|----------------------------|
|----------------------------|
|-2--222--22--5--55--7--0--1-|

1:32 x3
|-----------------------------|
|-----------------------------|
|-----------------------------|
|-2--222--44--5--55--7-77--70-|

1:50
|---------------------|
|---------------------|
|---------------------|
|-2--222--44--55050-7-|

1:57
|-----------------------------------------------------------------------------|
|-----------------------------------------------------------------------------|
|-----------------6--66----------6----------------2--6--66--------------------|
|-7--77---5--55-----------7--77----55--0--1--3--5------------7--77---5--55--5-|

2:24
|------------------------------------------------------|
|------------------------------------------------------|
|-6--66---------------------6--66----------------------|
|---------7--77---5--55--7----------7--77---5--0500505-|

2:45 x3
|----------------------------|
|----------------------------|
|----------------------------|
|-2--222--22--5--55--7--0--1-|

3:10 x3
|------------------------------|
|------------------------------|
|------------------------------|
|-2--22--4--44--5--55--7-77-70-|

3:28
|---------------------------------------------------|
|---------------------------------------------------|
|---------------------------------------------------|
|-2--22--4--44--5--55--7-77--0--00--2--22--3--5--05-|

3:41
|------------------------------------------------------------|
|------------------------------------------------------------|
|------------------------------------------------------------|
|-0--00--2--22--3--33--5--0505--0--00--2--22--3--33--5--5050-|

3:53
|-----------------------|
|-----------------------|
|-----------------------|
|-0--00--2--22--33030-5-|

3:59
|---------------------------------------------------|
|---------------------------------------------------|
|-----------------6--66----------6----------------2-|
|-7--77---5--55-----------7--77----55--0--1--3--5---|

4:16 x2
|--------------------------|
|--------------------------|
|-6--66--------------------|
|---------7--77---5--55--5-|

4:37
|--------------------------------|
|--------------------------------|
|-6--66--------------------------|
|---------7--77---5--55--0505050-|

4:48 x4
|----------------------------|
|----------------------------|
|----------------------------|
|-2--222--22--5--55--7--0--1-|

5:12 x3
|------------------------------|
|------------------------------|
|------------------------------|
|-2--22--4--44--5--55--7-77-70-|

5:32
|--------------------------------------------------|
|--------------------------------------------------|
|--------------------------------------------------|
|-2--22--4--44--5--55--7-77--2--22--4--44--55050-7-|
comments
We did not receive enough feedback on this tab! Please rate:
print report bad tab
1 2 3 4 5
I want to post or [tab]
guest
You may want to rate the tab now too:
select rating
Please do not post tabs as comments. Select "correction" instead!