Oops, an error
Loading. Please wait.

Died Bass Tab

version 1
version 1

Whole song

Interactive

1,221 views 1 this week
no commentswrite comment
1 2 3 4 5
please rate
add to favorites
launch autoscroll
font size
0
reset
guitar tuner
Tab Pro tools
  • play this tab
  • loop segment
  • change instrument
  • show fretboard
  • metronome
×
Best way to learn
"Died"
Autoscroll
slow
fast
+/-
esc
set tempo
stop
Contributor
tuning: Db Ab Db Gb (drop D and 1/2 step down)

intro/verse
|-------------------------------------------------------------------|
|-------------------------------------------------------------------|
|---10-8---8/5--5----------5---5/3--------5-----------------------3-|
|-0------0---------0-0-5h7---0------0-5h7---6-5--0-3-3-5-0-0--3h5---|


pre-chorus
|--------------------------|
|--------------------------|
|--------------------------|
|-3-3-3-3-3--6~--2-2-2-2-2-|


chorus
|-----------------------------|
|-----------------------------|
|-----------1--0-0-0-0-0-0-0--|
|-1--1--1-3-------------------|
comments
We did not receive enough feedback on this tab! Please rate:
print report bad tab
1 2 3 4 5
I want to post or [tab]
guest
You may want to rate the tab now too:
select rating
Please do not post tabs as comments. Select "correction" instead!