Oops, an error
Loading. Please wait.

Dirt Bass Tab

version 1
version 1

Whole song

Interactive

5,992 views 6 this week
no commentswrite comment
1 2 3 4 5
x 3
add to favorites
launch autoscroll
font size
0
reset
guitar tuner
Autoscroll
slow
fast
+/-
esc
set tempo
stop
Help us to improve Ultimate-Guitar.com Take our survey!
×
Author
Difficulty
Tuning
intermediate
D# G# C# F# A# D#
Alice in Chains - "Dirt"
From the "Dirt" Album
Bass Tuning - Eb Ab Db Gb
tabbed by jjhand

This song has a weird scale and sounds middle eastern, but its
fairly simple to play. I tuned the bass a 1/2 step down like all
of their material. Please rate/comment.

Intro (0:13)
Gb|------------|-----------|------------|---------------|
Db|-7----------|-7---------|-(7)--------|-(7)-------7\--|
Ab|------------|-----------|------------|---------0-----|
Eb|------------|-----------|------------|---------------|




Verse Riff - play 3x (first time without lyrics)

Gb|---------------|---------------|---------------|----------------|
Db|-----------5---|-(5)-----------|---------------|----------------|
Ab|-0-----5-7-----|-------7-5-3---|-0-----5-7-----|--------5p0-3-5-|
Eb|---------------|---------------|-----------3---|-(3)------------|

Gb|---------------|---------------|---------------|-----------------|
Db|-----------5---|-(5)-----------|---------------|----2-2-3-3-0-0--|
Ab|-0-----5-7-----|-------7-5-3---|-0-----5-7-----|-----------------|
Eb|---------------|---------------|-----------3---|-(3)-------------|





Chorus - play 2x

Gb|------------|------------|------------|--------------|
Db|------------|------------|------------|--------------|
Ab|-0----1-----|-3----------|-0----1-----|-3------------|
Eb|------------|------3-----|------------|--------------|
   "One who doesn't care  is one who shouldn't be"
 "I tried to hide myself from what is wrong for me"




Play Verse Riff 3x again


Play Chorus Again 2x through



Solo - play 4x (solo is 16 bars)
Gb|------------|-----------|------------|---------------|
Db|------------|-----------|------------|---------------|
Ab|-0----3-----|-(3)-------|-0----3-----|---------------|
Eb|----3-------|-----------|----3-----1-|-(1)-----------|




Play verse riff again 3x


Play Chorus Again 2x through


Play verse riff again to end song


KEY
************************************

| /   slide up
| \   slide down
| h   hammer-on
| p   pull-off
| ~   vibrato

************************************
Suggest correction
Give kudos to tab author, rate the tab!
1 2 3 4 5
comments
print report bad tab
guest
You may want to rate the tab now too:
select rating
Wanna post a correction for this tab? Suggest correction