Oops, an error
Loading. Please wait.

Dont Follow Bass Tab

version 1
version 1

Whole song

Interactive

1,493 views 3 this week
no commentswrite comment
1 2 3 4 5
please rate
add to favorites
launch autoscroll
font size
0
reset
guitar tuner
Tab Pro tools
  • play this tab
  • loop segment
  • change instrument
  • show fretboard
  • metronome
×
Best way to learn
"Dont Follow"
Autoscroll
slow
fast
+/-
esc
set tempo
stop
Contributor
Difficulty
Tuning
novice
D# G# C# F# A# D#
My first tab, just a sketch of this song, because have much fills.

The bass line start at 2:33, in the third verse while the guitar make chords.

do this 1 time
|------------------------------|----------------------------|
|-------------------------/7---|0---0-0---0-0---0-0---0-0---|
|-----0-0---0-0---0-0---0------|----------------------------|
|4h5---------------------------|----------------------------|

the next are like this.
|------------------------------|----------------------------|
|-------------------------/7---|0---0-0---0-0---0-0---0-0---|
|0-0--0-0---0-0---0-0---0------|----------------------------|
|------------------------------|----------------------------|


outro (3:59)
(let ring only 1 bar)

|------|
|------|
|0-----|
|------|

there's some fills, like octaves and other stuff, I couldn't recognize them, I hope
someone could help me to correct this tab. My mail is joaquin.hdlf@gmail.com if You have
some doubt or if You have the fills of the bass line or some ideas to make the fills, 
send me and I put in. ;)
comments
We did not receive enough feedback on this tab! Please rate:
print report bad tab
1 2 3 4 5
I want to post or [tab]
guest
You may want to rate the tab now too:
select rating
Please do not post tabs as comments. Select "correction" instead!