Oops, an error
Loading. Please wait.

Down In A Hole Bass Tab

version 1
version 1

Acoustic

Whole song

Interactive

12,284 views 30 this week
no commentswrite comment
1 2 3 4 5
x 6
add to favorites
launch autoscroll
font size
0
reset
guitar tuner
Autoscroll
slow
fast
+/-
esc
set tempo
stop
Help us to improve Ultimate-Guitar.com Take our survey!
×
Author
tuning 1/2 step down

intro  :18
[---------------------]
[------------------7--]
[---------------------]
[--5-5-5-5-5-5-5-5----]


:20  x4
[-------------------------------------------------------]
[--------2-----------------------2----------------------]
[-----3--------2-3-5----------3--------2-3-5--5h6p5--3--]
[--5--------3-----------0--5--------3-------------------]

1:01  x3
|-----------------------------------------------------------------------|
|----------------5--5-5-----------------------------5--5-5--------------|
|------------------------5--5-5-----------------------------5-5h7p5-----|
|--5-5-5-5--5-5------------------7----5-5-5-5--5-5-------------------7--|

1:32
|-----------------------------------------------------------------------|
|----------------5--5-5------------------------------5--5-5-------------|
|------------------------5-5h7p5-----------------------------5--5-5-----|
|--5-5-5-5--5-5-------------------7----5-5-5-5--5-5------------------7--|

1:42  x4
|-----------------------------------|
|----------------5-5-5--------------|
|------------5-7-------5--5h7p5-----|
|--5-5-5-5-5---------------------7--|

2:02
|-----------------------------------------------|
|-----------------------------------------------|
|-----------3--3-3-3-3-3-5-5--------------------|
|--5--3--0--------------------0-5h7p5-5--3-1-0--|

2:12
[-------------------------------------------------------]
[--------2-----------------------2----------------------]
[-----3--------2-3-5----------3--------2-3-5--5h6p5--3--]
[--5--------3-----------0--5--------3-------------------]

2:22  x3
|-----------------------------------------------------------------------|
|----------------5--5-5-----------------------------5--5-5--------------|
|------------------------5--5-5-----------------------------5-5h7p5-----|
|--5-5-5-5--5-5------------------7----5-5-5-5--5-5-------------------7--|

2:52  x2
|-----------------------------------|
|----------------5--5-5-------------|
|------------------------5--5-5-----|
|--5-5-5-5--5-5------------------7--|

3:02  x4
|-----------------------------------|
|----------------5-5-5--------------|
|------------5-7-------5--5h7p5-----|
|--5-5-5-5-5---------------------7--|

3:22
|-----------------------------------------------|
|-----------------------------------------------|
|-----------3--3-3-3-3-3-5-5--------------------|
|--5--3--0--------------------0-5h7p5-5--3-1-0--|

3:32
[-------------------------------------------------------]
[--------2-----------------------2----------------------]
[-----3--------2-3-5----------3--------2-3-5--5h6p5--3--]
[--5--------3-----------0--5--------3-------------------]

3:42  x2
[------------------------------------------------------------]
[-----------2------------------------------2-----------------]
[--------3--------2-3-5--5h6p5--3-------3--------2-3-5--5----]
[--0--5--------3---------------------5--------3-----------5--]

4:02
[--------------------------------------------------------]
[--------2------------------------2----------------------]
[-----3--------2-3-5-----------3--------2-3-5--5h6p5--3--]
[--5--------3--------5---0--5--------3-------------------]

4:13
[-------------------------------------------------------]
[--------2-----------------------2----------------------]
[-----3--------2-3-5----------3--------2-3-5--5h6p5--3--]
[--5--------3-----------0--5--------3-------------------]

4:22  x8
|-----------------------------------|
|----------------5-5-5--------------|
|------------5-7-------5--5h7p5-----|
|--5-5-5-5-5---------------------7--|

5:03
|-----------------------------------------------|
|-----------------------------------------------|
|-----------3--3-3-3-3-3-5-5--------------------|
|--5--3--0--------------------0-5h7p5-5--3-1-0--|

5:13
[-------------------------------------------------------]
[--------2-----------------------2----------------------]
[-----3--------2-3-5----------3--------2-3-5--5h6p5--3--]
[--5--------3-----------0--5--------3-------------------]

5:22
[-------------------------------------------------]
[--------2------------------------2---------------]
[-----3--------2-3-5--5--------3--------2-3-5-----]
[--5--------3-----------5---5--------3----------5-]

This tab was made by studying other tabs, making changes, and organizing the riffs by 
to the song multiple times.
Suggest correction
comments
print report bad tab
guest
You may want to rate the tab now too:
select rating
Wanna post a correction for this tab? Suggest correction