Oops, an error
Loading. Please wait.

Down In A Hole Tab

version 1
version 1

Acoustic

Whole song

Interactive

138,369 views 225 this week
7 commentsread comments
1 2 3 4 5
x 17
add to favorites
launch autoscroll
font size
0
reset
how to read this tab
guitar tuner
Autoscroll
slow
fast
+/-
esc
set tempo
stop
Help us to improve Ultimate-Guitar.com Take our survey!
×
Song: Down in a Hole
Artist: Alice in Chains
Album: Unplugged

Tabbed by Jarred B.

I noticed there was no tabs on the site for this version of the song so here it is. This
is my first attempt at a tab. I think im pretty close to correct but if you disagree then
share your corrections instead of complaining about it. This is one of my all-time fave
songs. Enjoy.

Guitar I - Jerry Cantrell - Acoustic
Guitar II - Scott Olson - Acoustic


[Intro/Verse]

Guitar I

e|---------------------------3--------2------2-----|
B|o-0h1----------1------------3---------3----------|
G|------2-----------2----------0----------2--------|
D|---------2-------------------------0-------------|
A|o-0---------0------------------------------------|
E| --------------------------3---------------------|
   "Bur -               y   me          softly in this
   womb"


[Pre-Chorus] 
(Strumming pattern not tabbed)

Guitar I

e|------------------3------------2------------------|
B|o-----------------3------------3------------------|o
G|------------------0------------2------------------|
D|--9--10-9--7------0------------0------------------|
A|o-0--0--0--0------2-------------------------------|o
E|------------------3-------------------------------|

Guitar II


e|--0-----------3----------------2----------------|
B|--0-1-0-------3----------------3----------------|
G|--2------2----0----------------2----------------|
D|--2-----------0----------------0----------------|
A|--0-----------2---------------------------------|
E|--------------3---------------------------------|
"Down...      don't...         I can be saved."


[Chorus] 
(Strumming pattern not tabbed)

Guitar I

e|-------------------------3------------2--------------|
B|-------------------------3------------3--------------|
G|---9-10-9-7--7h9p7-------0------------2--------------|
D|---0--0-0-0--------------0------------0--------------|
A|-------------------------2---------------------------|
E|-------------------------3---------------------------|

Guitar II

e|--0--1--0--0--0------0---------------0---0------|
B|--3--3--3--3----3-3------3----3--------3--------|
G|--2--2--2--2------0-----------0-----------------|
D|------------------2-----------0-----------------|
A|------------------3-----------2-----------------|
E|------------------------------3-----------------|
   "Down  in a  hole
    Feelin so small
    Down in a hole
    Losing con-trol"

 Played during last chorus by Guitar II.
e|-------13--------12----------10-------------|
B|----15--------15----------13----------------|
G|-14--------14----------12---------7h9p7-----|
D|--------------------------------------------|
A|--------------------------------------------|
E|--------------------------------------------|


[Post-Chorus] 
(Strumming pattern not tabbed)

Guitar I & 2

e|2-----0-----1-----------------|
B|3-----0-----1-----------------|
G|2-----1-----2-----3-----------|
D|0-----2-----3-----3----3----1-|
A|------2-----3-----5----3----1-|
E|------0-----1----------5----3-|
"I'd     like     to     fl-      y     but"

************************************

| h  Hammer-on
| p  Pull-off

************************************
Suggest correction
comments
print report bad tab
7 comments total. Showing first comments.
+1 reply
Calvin000 10 Jul 18, 2005 12:00 AM

E Flat buddy, like all AIC songs.

+1 reply
GrungeRockDude 10 Jul 18, 2005 12:00 AM

I was sort of in a rush when i posted that so some of it isnt lined up very well and i missed some minor stuff (like the tuning) but i think this here smooths everything out


[Prechorus]

Guitar I

|------------------3------------2-----------------
|------------------3------------3-----------------
|------------------0------------2-----------------
|--9--10-9--7p8h7--0------------0-----------------
|--0--0--0--0------2------------------------------
|------------------3------------------------------


[Chorus]

Guitar I

|-------------------------3------------2--------------
|-------------------------3------------3--------------
|---9-10-9-7--7h9p7-------0------------2--------------
|---0--0-0-0--------------0------------0--------------
|-------------------------2---------------------------
|-------------------------3---------------------------

Guitar II

|--0--1-0---0------0-----0--0----0--------
|--3------3---3--3---3---3-----3----------
|--2-------------0-------0----------------
|----------------2-------0----------------
|----------------3-------2----------------
|------------------------3----------------
"Down in a hole
Feelin so small
Down in a hole
Losing con-trol"

Played during last chorus by Guitar II.
|-------13--------12----------10-------------
|----15--------15----------13----------------
|-14--------14----------12---------7h9p7-----
|--------------------------------------------
|--------------------------------------------
|--------------------------------------------

[Post chorus]

Guitar I & 2

|2-----0-----1-----------------------
|3-----0-----1-----------------------
|2-----1-----2---3333333333---------
|0-----2-----3---3333333333-3----1-
|------2-----3---5555555555-3----1-
|------0-----1--------------5----3-
"I'd like to fl- y but"

0 reply
sickstring11 56 Jun 16, 2008 11:49 PM

what is the very last chord strummed at the end of the song? is it A minor?

guest
You may want to rate the tab now too:
select rating
Wanna post a correction for this tab? Suggest correction