Oops, an error
Loading. Please wait.

Down In A Hole Tab

version 2
version 2

Whole song

Interactive

179,992 views 69 this week
8 commentsread comments
1 2 3 4 5
x 22
add to favorites
launch autoscroll
font size
0
reset
how to read this tab
guitar tuner
backing track
0:00
0:00
Autoscroll
slow
fast
+/-
esc
set tempo
stop
Author
[Intro]
Q=49
4/4
(Gtr 1)
   Q    S E.     +Q        S S S S +S  S S S
e|----|--------------------------------------|
B|----|-3-5------(5)-------------------------|
G|----|--------------------------------------|
D|----|--------------------4-5-4-2-(2)-4-2---|
A|----|------------------------------------3-|
E|----|--------------------------------------|

(Gtrs 2, 3)
   Q    S S  S S  S  S S S S S S S +S  S S S
e|----|--------------------3-----2-(2)-------|
B|----|-0h1----------1-------3---------3-----|
G|----|------2---------2-------0---------2---|
D|----|--------2---------2-------0-(0)-----0-|
A|----|-0---------0--------------------------|
E|----|--------------------3-----------------|

              PM|
                                  |-3-|
   +Q       S S S S S S S S  S  S T T T s
e|----------------------------------------|
B|------------------------------3-5h6p5-3-|
G|----------------------2-4--5------------|
D|----------------2-4-5-------------------|
A|-(3)--------0-3-------------------------|
E|----------------------------------------|

    S S S S S S S S S S S S +S  S S     S
e|------------------3-----2-(2)-----------|
B|--0h1-------1-------3---------3---------|
G|------2-------2-------0---------2-------|
D|--------2-------2-------0-(0)---------0-|
A|--0-------0-----------------------------|
E|------------------3---------------------|
                           end Rhy Fig 1-|

 w/Rhy Fig 1
   S E.     +Q        S S S S +S  S S S
e|--------------------------------------|
B|-3-5------(5)-------------------------|
G|--------------------------------------|
D|--------------------4-5-4-2-(2)-4-2---|
A|------------------------------------3-|
E|--------------------------------------|

                        ~
   a    +E.     +S  S S E   S S S S  S    +S  +S  S
e|---------------------------------------------------|
B|-7b8==(7)r====(7)-5h7p5---3h5p3--------------------|
G|-7b9==(7)r====(7)-5h7p5---4h5p4-4h=5b7==(5)r(5)p4--|
D|--------------------------------5h=7b9==(7)r(7)p5--|
A|---------------------------------------------------|
E|---------------------------------------------------|

                      PM
        +Q          S S S S S S S S  S     S   S  S
e|------------------------------------------------3--|
B|-----------------------------------------3---5-----|
G|------------------------------2-4--5---------------|
D|------------------------2-4-5----------------------|
A|------(3)-----------0-3----------------------------|
E|---------------------------------------------------|

[Verse 1]
 w/Rhy Fig 1 (x4) ( Gtrs 2, 3, 5)     
     Q       +H.                           +Q       +Q        H
e|--------------------------------------|---------------------------------------|
B|o-------------------------------------|--------------------------------------o|
G|--5-------(5)-------------------------|-(5)------(5)--------------------------|
D|--7-------(7)-------------------------|---------------------------------------|
A|o-------------------------------------|--------------------------------------o|
E|--------------------------------------|---------------------------------------|

    q       e   e   +q        +e.     t t
e|--------------2---(2)-------(2)-----------|
B|--------------3---(3)-------(3)-----------|
G|--------------2---(2)-------(2)-----------|
D|--------------0---(0)-------(0)-----x-x---|
A|------------------------------------x-x---|
E|------------------------------------x-x---|

[Verse 2, 3]
(Gtr 5)
            ~                                    ~
     s  s s s +s  s s s +s  e s +s  e s   s  s s s +s  s s s +s  e s +s  e s  (4x)
e|-------------------3-(3)-3-2-(2)-2---|------------------3-(3)-3-2-(2)-2----|
B|o------------------3-(3)-3-3-(3)-3---|------------------3-(3)-3-3-(3)-3---o|
G|-----------------0-0-(0)-0-2-(2)-2---|----------------0-0-(0)-0-2-(2)-2----|
D|--9-10-9-7-(7)-7-0-0-(0)-0-0-(0)-0-0-|-9-10-9-7-(7)-7-0-0-(0)-0-0-(0)-0-0--|
A|o-0--0-0-0-(0)-0-0---------0-(0)-0-0-|-0--0-0-0-(0)-0-0---------0-(0)-0-0-o|
E|-------------------3-(3)-3-----------|------------------3-(3)-3------------|

[Chorus]
     s  s s s +s  s s s +s  s s s +s  s s s
e|-------------------------0---------0-----|
B|o--------------------------3---------3---|
G|--9-10-9-7-(7)-7-0-0-(0)---------------0-|
D|--0--0-0-0-(0)-0-0-2-(2)-----0-(0)-------|
A|o------------------3-(3)-----2-(2)-------|
E|-----------------------------3-(3)-------|

   s  s s s +s  s s s +s  s s s +s  s s s
e|------------------------0---------0-------|
B|--------------------------3---------3----o|
G|-9-10-9-7-(7)-7-0-0-(0)---------------0---|
D|-0--0-0-0-(0)-0-0-2-(2)-----0-(0)---------|
A|------------------3-(3)-----2-(2)--------o|
E|----------------------------3-(3)---------|
                             end rhy fig 2-|

  e. s +e  e e s s +s  s s s   s s e s s s s s s s s +s  s s s
e|----------------------------|----------------------------------|
B|-3--------------------------|----------------------------------|
G|-2----------5-5-5-(5)-5-5-5-|-5--------------------------------|
D|-0--2-(2)-3-5-5-5-(5)-5-5-5-|-5-5-5-5-5-5-5-5s6s5-3-(3)-3-3-5--|
A|----2-(2)-3-3-3-3-(3)-3-3-3-|-3-5-5-5-5-5-5-5s6s5-3-(3)-3-3-5--|
E|----0-(0)-1-----------------|---3-3-3-3-3-3-3s4s3-1-(1)-1-1-3--|

 w/rhy fig 1
                                                                d.s. al coda
(Gtr 5)
   w                                   +q.          e    h
e|-----------------------------------|--------------------------------------|
B|-----------------------------------|--------------------------------------|
G|-----------------------------------|--------------------------------------|
D|-7---------------------------------|-(7)----------------------------------|
A|-7---------------------------------|-(7)----------------------------------|
E|-5---------------------------------|-(5)----------x\---x\-----------------|

  &
 w/rhy fig 1
   w                                   +w
e|-----------------------------------|---------------------------------------|
B|-----------------------------------|---------------------------------------|
G|-----------------------------------|---------------------------------------|
D|-7---------------------------------|-(7)-----------------------------------|
A|-7---------------------------------|-(7)-----------------------------------|
E|-5---------------------------------|-(5)-----------------------------------|

[Verse 4]
 w/rhy fig 1 (x4)
                                  ~           ~~~
   e      +q        +s  +s  s s s s +s  a s s s
e|----------------------------------------------|
B|----------------------------------------------|
G|-7b9====(7)-------(7)r(7)---------------------|
D|--------------------------4-5-4-2-(2)-2h4-2---|
A|--------------------------------------------3-|
E|----------------------------------------------|

  ~~~~~
   +q.          e   s    +s  +s  s +s  s    +s  +s
e|---------------------------------------------------|
B|---------------------------------------------------|
G|-------------------------------------4b6==(4)r(4)--|
D|------------------4b5==(4)r(4)-2-(2)---------------|
A|-(3)-----------------------------------------------|
E|---------------------------------------------------|

     ~~~~~~~~~~~                   ~           ~~~
   s e.     +q        s    +s  +s  s +s  a s s s
e|-----------------------------------------------|
B|-----------------------------------------------|
G|-4s2------(2)----------------------------------|
D|--------------------4b5==(4)r(4)-2-(2)-2h4-2---|
A|---------------------------------------------3-|
E|-----------------------------------------------|

  ~~~~~
   +q       s s s s s s s s  s  s s s   w
e|------------------------------------|--------------------------------------|
B|------------------------------------|--------------------------------------|
G|------------------------------------|--------------------------------------|
D|------------------------------------|--------------------------------------|
A|-(3)--------2-0-2---2-0-2-----5-5-5s|=7------------------------------------|
E|------------------3--------3--3-3-3s|=5------------------------------------|

   +w                                   +w
e|------------------------------------|------------------------------------|
B|------------------------------------|------------------------------------|
G|------------------------------------|------------------------------------|
D|------------------------------------|------------------------------------|
A|-(7)--------------------------------|-(7)--------------------------------|
E|-(5)--------------------------------|-(5)--------------------------------|

   q       e   e   +q        +e.     t t
e|-------------2---(2)-------(2)------------|
B|-------------3---(3)-------(3)------------|
G|-------------2---(2)-------(2)------------|
D|-------------0---(0)-------(0)-----x-x----|
A|-----------------------------------x-x----|
E|-----------------------------------x-x----|

[Chorus]
 w/rhy fig 2 (x4) 
(Gtr 5)
                  <
   q         e    e       +q        +q
e|--------------------------------------------|
B|--------------------------------------------|
G|----------------7pb9====(7)r======(7)-------|
D|--------------------------------------------|
A|--------------------------------------------|
E|--------------------------------------------|

                                                                 ~
   +e     e    s   e    s  +s  a     +e      s a     +s  +t  t s s
e|----------------10---10-(10)--------------10----------------------|
B|----------------10------------------------------------------------|
G|-(7)-------------------------9b11==(9)r------9b11==(9)r(9)p7-9-7--|
D|------------------------------------------------------------------|
A|------------------------------------------------------------------|
E|------------------------------------------------------------------|

    ~~~~~~~~~~~~~~
   +e.      s +h.
e|------------------------------------------|
B|------------------------------------------|
G|-(7)------7-(7)---------------------------|
D|------------------------------------------|
A|------------------------------------------|
E|------------------------------------------|

   e    s s  s  a     +s  +s      +s  +s  +s  s s  s    +s  +t     +t  +t     +t
e|----------------------------------------------------------------------------------|
B|----------------------------------------------------------------------------------|
G|----------------------------------------------------------------------------------|
D|----------------------------------------------------------------------------------|
A|------7-8--9--9b10==(9)r(9)b11==(9)-(9)r(9)-7s5s=7b9==(7)r(7)b9==(7)r(7)b9==(7)r==|
E|----------------------------------------------------------------------------------|

        ~~~~~~~~~~~
   +s   e.     +h.
e|-------------------------------------------|
B|-------------------------------------------|
G|-------------------------------------------|
D|-------------------------------------------|
A|-(7)--5------(5)---------------------------|
E|-------------------------------------------|

                                                                 |---3---|
  q         s   a       s    s  s      +q         +t   +s     t  s  s    s
e|----------------------10------------------------------------10-------------|
B|----------------------10---10-15b17==(15)-------(15)r(15)------13-10-------|
G|--------------12b14==(12)r---------------------------------------------10--|
D|---------------------------------------------------------------------------|
A|---------------------------------------------------------------------------|
E|---------------------------------------------------------------------------|

    a     +s    a     +s    a     +e   +e     s  a    +s   +s    s  a     +s    a      +s   +e    s  a     +s
e|-----------------------------------------------------------------------------------------------------------|
B|------------------------------------------13------------------13-------------------------------13----------|
G|-12b14=(12)r-12b14=(12)r-12b14=(12)-(12)r----12b14=(12)-(12)r----12b14=(12)r(12)b14=(12)-(12)r---12b14=(12)|
D|-----------------------------------------------------------------------------------------------------------|
A|-----------------------------------------------------------------------------------------------------------|
E|-----------------------------------------------------------------------------------------------------------|

                                                                                            ~~~~~~~
   +s    a      +s    a      +s    s  s   a      s    a      +e    +s    s  a     +t   +t   s  +q
e|-----------------------------------------------------------------------------------------------------|
B|---------------------------------10-13---------10----------------------13----------------------------|
G|-(12)r(12)b14=(12)r(12)b14=(12)r--------12b14=(12)r(12)b14=(12)--(12)r----12b14=(12)r(12)s10-(10)----|
D|-----------------------------------------------------------------------------------------------------|
A|-----------------------------------------------------------------------------------------------------|
E|-----------------------------------------------------------------------------------------------------|

                                         ~~       ~~~~~~~
    a      +e   +s   s  +t   s      +t   e  e  s  s  +s   s  s  s
e|----------------------------------------------------------------|
B|-13b15==(13)r(13)-----------------------------------------------|
G|------------------12-(12)-12pb13r(12)-10------------------------|
D|-----------------------------------------10-12-12-(12)-12-12-12-|
A|----------------------------------------------------------------|
E|----------------------------------------------------------------|

    s  s  e  +q        s.  t s a s  s  s s a     +s
e|----------------------------------5--5-5------------|
B|-----------------------------3h5--5--6-5-8b10==(8)--|
G|-10------------------------5------------------------|
D|----12-12-(12)-----------7--------------------------|
A|----------------------------------------------------|
E|----------------------------------------------------|

(w/rhy fig 1 x1.5)
Gtr 5)

   +h               +s   s s s  e    s t t
e|-----------------------------------------|
B|-(8)--------------(8)r-5-x-5--5----7-7-7-|
G|-----------------------5-x-5--5----7-7-7-|
D|-----------------------------------------|
A|-----------------------------------------|
E|-----------------------------------------|

                         ~~~~~~~~~~~~~~~~
    q          +e    +s  s +q        +e.     t t
e|-----------------------------------------------|
B|--7b8========(7)r==(7)p5-(5)-------(5)---------|
G|--7b8========(7)r==(7)p5-(5)-------(5)---------|
D|-------------------------------------------7p5-|
A|-----------------------------------------------|
E|-----------------------------------------------|

    e   s t t s     +e       +s   t t s a    +s  +s  +t  t s e
e|-------------------------------------------------------------------|
B|-----------------------------------------------------------5b5.5---|
G|------------5b5.5-(5)b7====(5)r-----5-7b9==(7)r(7)-(7)p5---5b5.5---|
D|------x-5h7---------------------5h7----------------------7---------|
A|-------------------------------------------------------------------|
E|-------------------------------------------------------------------|

                               ~~~~~~~~~~~
    s s s      a      +s  +s  +e.     +e.     e      s  a  e      w
e|-------------------------------------------------------------|-------*|
B|------8pb10r(8)b10==(8)-(8)r(8)-----(8)-----------14-14h15---|-14----*|
G|----0---------------------------------------------14----14---|-14----*|
D|--------------------------------------------------14-14h16---|-14----*|
A|-------------------------------------------------------------|-------*|
E|-------------------------------------------------------------|-------*|

    s s s              s   s   s  s s  s  s s s +s   s     s s    w
e|-------------------------------------3------2-(2)------------|-------*|
B|--0h1------------------------1----------3----------3---------|--2----*|
G|------2----------------------2------------0--------------2---|--2----*|
D|---------------------2----------2-2---------0-(0)--------0---|--2----*|
A|--0----------------------0---------------------------------0-|--0----*|
E|-------------------------------------3-----------------------|-------*|


************************************

| (n)  Ghost note
| h    Hammer-on
| p    Pull-off
| PM   Palm mute
| s    Slap
| b    Bend
| ~    Vibrato
| x    Dead note
| pb   Pre-bend
| *    Natural harmonic

************************************
Suggest correction
comments
print report bad tab
8 comments total. Showing first comments.
0 reply
majorpain1023 61 Dec 29, 2007 01:45 AM

I got as far
as.....
|---------------------------------------------------||
|-7b8==(7)r====(7)-5h7p5---3h5p3--------------------||

|-7b9==(7)r====(7)-5h7p5---4h5p4-4h=5b7==(5)r(5)p4--||
|--------------------------------5h=7b9==(7)r(7)p5--||
|------
---------------------------------------------||
|---------------------------------------------------||
And I got
stummped on how you can do a 4/5 hammer-on to 5/7 seems a bit impossilbe to me, maybe I'm mising something.
Othwise
fairly good tab!

0 reply
Kreuger 792 Jan 09, 2008 02:59 PM

It was likely recorded as separate guitars or done with a slide

+1 reply
Chickenfrmheck 115 Jan 23, 2008 03:01 PM

dont worry about the subtle details like that with a multi finger shift as such, just move your hand, and it sounds
passable.
great tab.

guest
You may want to rate the tab now too:
select rating
Wanna post a correction for this tab? Suggest correction