Oops, an error
Loading. Please wait.

Fear The Voices Bass Tab

1,065 views 1 this week
no commentswrite comment
1 2 3 4 5
please rate
add to favorites
launch autoscroll
font size
0
reset
guitar tuner
Autoscroll
slow
fast
+/-
esc
set tempo
stop
Help us to improve Ultimate-Guitar.com Take our survey!
×
Author
:00
|-----------------------------------------------------------------------------------------------|
|-----------------------------------------------------------------------------------------------|
|--10-----8---6----10-----8---6-------------------13-------------------13-------------------13--|
|------9---------------9----------13--33--33--33-------13--33--33--33-------13--33--33--33------|

:33 x7
|---------------------|
|---------------------|
|----------------1-3--|
|-1--33--33--33-------|

:50
|-----------------------|
|-----------------------|
|-----------------------|
|-1--33--33--33--43210--|

:53 x4
|---------------------|
|---------------------|
|----------------1-3--|
|-1--33--33--33-------|

1:02
|----------------------------------------------------------------------------------|
|----------------------------------------------------------------------------------|
|--1h3---33-33-33-33--1h3---33-33-33-33------------------1-3------------------1-3--|
|-----------------------------------------1--33--33--33--------1--33--33--33-------|

1:12
|------------------------------------------------------------------------------------------|
|------------------------------------------------------------------------------------------|
|--5---55-55-55-4-33-3------------------------1-3-----------------1-3-----------------1-3--|
|-----------------------3-3-3--1--33--33--33-------1--33--33--33-------1--33--33--33-------|

1:24
|-----------------------------------------------------------------------------------|
|-----------------------------------------------------------------------------------|
|--------------------------------------1-3-----------------1-3-----------------1-3--|
|-1--33--33--33--43210--1--33--33--33-------1--33--33--33-------1--33--33--33-------|

1:34
|-------|
|-------|
|-------|
|--10~--|

1:36
|-------------------------------------------------------------------------------------|
|-------------------------------------------------------------------------------------|
|-----------------1-3-----------------1-3-----------------1-3-------------------------|
|--1--33--33--33-------1--33--33--33-------1--33--33--33--------1--33--33--33--43210--|

1:46 x4
|---------------------|
|---------------------|
|----------------1-3--|
|-1--33--33--33-------|

1:56
|----------------------------------------------------------------------------------|
|----------------------------------------------------------------------------------|
|--1h3---33-33-33-33----1h3---33-33-33-33-----------------1-3-----------------1-3--|
|------------------------------------------1--33--33--33-------1--33--33--33-------|

2:06
|---------------------------------------------------------------------------|
|---------------------------------------------------------------------------|
|--5---55-55-55-4-33-3----------------------------1-3------------------1-3--|
|-----------------------3^-3^-3^---1--33--33--33--------1--33--33--33-------|

2:18
|---------------------------------------------------------------|
|---------------------------------------------------------------|
|--------------------------------------1-3-----------------1-3--|
|-1--33--33--33--43210--1--33--33--33-------1--33--33--33-------|

2:30
|-------------------------------------------------------------------------------------|
|-------------------------------------------------------------------------------------|
|-----------------1-3-----------------1-3-----------------1-3-------------------------|
|--1--33--33--33-------1--33--33--33-------1--33--33--33--------1--33--33--33--43210--|

2:40 x4
|---------------------|
|---------------------|
|----------------1-3--|
|-1--33--33--33-------|

2:49
|----------------------------------------------------------------------------------|
|----------------------------------------------------------------------------------|
|--1h3---33-33-33-33--1h3---33-33-33-33------------------1-3------------------1-3--|
|-----------------------------------------1--33--33--33--------1--33--33--33-------|

3:00
|------------------------------------------------------|
|------------------------------------------------------|
|--5---55-55-55-4-33-3----------------------------1-3--|
|-----------------------3^-3^-3^---1--33--33--33-------|

3:06
|----------------------------------------|
|----------------------------------------|
|----------------3------------------1-3--|
|-1--33--33--33------1--33--33--33-------|

3:14 x2
|----------------|
|----------------|
|--10-----8---6--|
|------9---------|

3:37 x2 softly
|-----------------------------------------------|
|-----------------------------------------------|
|--1010101010101010----------88888888--6666666--|
|-------------------99999999--------------------|

3:56 x6
|---------------------|
|---------------------|
|----------------1-3--|
|-1--33--33--33-------|

4:12
|-----------------------------------------------------------------------------------|
|-----------------------------------------------------------------------------------|
|--------------------------------------1-3-----------------1-3-----------------1-3--|
|-1--33--33--33--43210--1--33--33--33-------1--33--33--33-------1--33--33--33-------|

4:21
|-----------------------|
|-----------------------|
|-----------------------|
|-1--33--33--33--43210--|

4:25 x9
|---------------------|
|---------------------|
|----------------1-3--|
|-1--33--33--33-------|
Suggest correction
What's this?
You can suggest a correction to this tab. Community and Mods will review your correction and vote to approve or reject it.
comments
We did not receive enough feedback on this tab! Please rate:
print report bad tab
1 2 3 4 5
guest
You may want to rate the tab now too:
select rating
Please do not post tabs as comments. Select "correction" instead!