Oops, an error
Loading. Please wait.

Frogs Bass Tab

version 1
version 1

Acoustic

Whole song

Interactive

777 views 1 this week
no commentswrite comment
1 2 3 4 5
please rate
add to favorites
launch autoscroll
font size
0
reset
guitar tuner
Autoscroll
slow
fast
+/-
esc
set tempo
stop
Help us to improve Ultimate-Guitar.com Take our survey!
×
Author
tuning Eb Ab Db Gb

:24
|---|
|---|
|---|
|-0-|

x3
|-9/12-----------9/13/12---------|
|--------------------------------|
|--------------------------------|
|--------4-3-0-------------4-3-0-|

|-9/12-----------9/13/12----------------------------|
|---------------------------------------------------|
|---------------------------------------------------|
|--------4-3-0-------------5-4-3--3-3--3--3-3/10--0-|

x3
|--------12-|
|-----------|
|-----------|
|-4-3-0-----|

|---------9/12-----------9/13/12-|
|--------------------------------|
|--------------------------------|
|-4-3-0----------4-3-0-----------|

|---------9/12-----------9/13/12-|
|--------------------------------|
|--------------------------------|
|-4-3-0----------6-5-0-----------|

|----------------------------------------|
|----------------------------------------|
|----------------------------------------|
|-5-4-3--3-3--3-3--3-3--3--3-3--3-3--3-3-|

x7
|----------------------------|
|----------------------------|
|----------------------------|  
|-34-4-4-4-4--6--8-88-888888-|

|---------------------|
|---------------------|
|---------------------|  
|-34-4-4-4-4--6--3--0-|

x3
|--------12-|
|-----------|
|-----------|
|-4-3-0-----|

x2
|---------9/12-----------9/13/12-|
|--------------------------------|
|--------------------------------|
|-4-3-0----------4-3-0-----------|

|----------------------------------------|
|----------------------------------------|
|----------------------------------------|
|-5-4-3--3-3--3-3--3-3--3--3-3--3-3--3-3-|

x7
|----------------------------|
|----------------------------|
|----------------------------|  
|-34-4-4-4-4--6--8-88-888888-|

|---------------------|
|---------------------|
|---------------------|  
|-34-4-4-4-4--6--3--0-|

|-12-|
|----|
|----|
|----|

x27
|--------12-|
|-----------|
|-----------|
|-4-3-0-----|

|-------|
|-------|
|-------|
|-4-3-0-|
Suggest correction
Give kudos to tab author, rate the tab!
1 2 3 4 5
comments
print report bad tab
guest
You may want to rate the tab now too:
select rating
Wanna post a correction for this tab? Suggest correction