Oops, an error
Loading. Please wait.

Frogs Tab

version 1
version 1

Whole song

Interactive

29,515 views 69 this week
2 commentsread comments
1 2 3 4 5
x 8
add to favorites
launch autoscroll
font size
0
reset
how to read this tab
guitar tuner
Autoscroll
slow
fast
+/-
esc
set tempo
stop
Help us to improve Ultimate-Guitar.com Take our survey!
×
Eb tuning: down half a step.

[Main riff]
e|----------------------------------------|
B|----------------------------------------|
G|----------------------------------------| (played over and
D|------5------5------5------5----5----5--|  over)
A|----4------4------4------4--------------|
E|--0------0------0------0------4----3----|

[Verse]
(While one of the guitars continues playing the main riff, the
other one plays this:)
e|---------------------------------------|
B|---------------5--------7-------(7)----|
G|----6b-r-b----------------5------------| (x4)
D|---------------------------------------|
A|---------------------------------------|
E|--0---------0-----0----------0---------|
     what    does friend mean to   you...

(At the end of the verse it changes to this)
e|----------------------------------------------------|
B|----------------------------------------------------|
G|----------------------------------------------------|
D|------5-----5-----5-----5-----5-----5-----5-----5---|
A|----5-----4-----5-----4-----5-----4-----5-----4-----|
E|--3-----3-----3-----3-----3-----3-----3-----3-------|

(Then go back to the main riff and then comes the second verse
which is identical to the first)

[Chorus]
     G#5       A#5  C
e|-----------------0--0-0-0-0--|
B|-----------------1--1-1-1-1--|
G|-----------------0--0-0-0-0--|
D|--6-6-6-6-6--8---2--2-2-2-2--|
A|--6-6-6-6-6--8---3--3-3-3-3--|
E|--4-4-4-4-4--6---0--0-0-0-0--|

     G#5        A#5  C
e|------------------0--0-0-0-0--|
B|------------------1--1-1-1-1--|
G|------------------0--0-0-0-0--| (x6)
D|--6-6-6-6-6---8---2--2-2-2-2--|
A|--6-6-6-6-6---8---3--3-3-3-3--|
E|--4-4-4-4-4---6---0--0-0-0-0--|
   why's it got to  be this way.......

     G#5       A#5  Bm
e|-----------------2---|
B|-----------------3---|
G|-----------------4---|
D|--6-6-6-6-6--8---4---|
A|--6-6-6-6-6--8---2---|
E|--4-4-4-4-4--6-------|

(After a couple of times, guitar two plays something like this)
I'm not too sure about this part, i've listened and relistened
to the cd but i just can't seem to really get it). But it's
close enough.)

e|-------------3------9b-r-9-7---------7----|
B|-----------3---3-------------7-----7---7--|
G|------5-3---------------------------------|
D|----5-------------------------------------|
A|--3---------------------------------------|
E|------------------------------------------|

e|-------------3------9b-r--7--9b--|
B|-----------3---3-----------------|
G|------5-3------------------------|
D|----5----------------------------|
A|--3------------------------------|
E|---------------------------------|

[Verse]
(While one of the guitars continues playing the main riff, the
other one plays this:)
e|---------------------------------------|
B|---------------5--------7-------(7)----|
G|----6b-r-b----------------5------------| (x4)
D|---------------------------------------|
A|---------------------------------------|
E|--0---------0-----0----------0---------|
     what    does friend mean to   you...

(At the end of the verse it changes to this)
e|----------------------------------------------------|
B|----------------------------------------------------|
G|----------------------------------------------------|
D|------5-----5-----5-----5-----5-----5-----5-----5---|
A|----5-----4-----5-----4-----5-----4-----5-----4-----|
E|--3-----3-----3-----3-----3-----3-----3-----3-------|

(Then go back to the main riff and then comes the second verse
which is identical to the first)

[Chorus]
Then comes this weird part where layne starts talking.
One of the guitars keeps on playing the main riff and the
second one just fiddles around with the harmonics on the 12th
and 15th fret i think...

(Third second of the song)
This is tuned down a half step just like any other Alice in Chains song.  It
Basically has three parts.  

[First part...the verse]
e|------------------------------|
B|------------------------------|
G|------------------------------|
D|----5----5----5----5--5-5-----|
A|--4----4----4----4------------|
E|0----0----0----0----4--3------|
that repeats over and over.

(The next part is the pre-chorus type thing)
e|---------------------------|
B|---------------------------|
G|---------------------------|
D|----5------------5---------|
A|--5--5--------5---5--------|
E|3------3-4-3-------3-4-----|


************************************

| (n)  Ghost note
| r    Release
| b    Bend

************************************
Suggest correction
comments
print report bad tab
2 comments total.
0 reply
nirvana666 20 Jan 08, 2005 12:00 AM

this tab is just about 100% wrong other than the verse and intro

0 reply
PinoyMetalNerd 10 Oct 21, 2015 10:30 AM, edited at 10:31 am

Its Decent, the chorus i easier but does not sound right. But like what Nirvan666 said, only the verse and the intro are accurate.decent tab though. Its best for those with only one acoustic guitars and thos whi find the other tabs way to hard.

guest
You may want to rate the tab now too:
select rating
Wanna post a correction for this tab? Suggest correction