Oops, an error
Loading. Please wait.

Frogs Acoustic tab

version 2
version 2

Whole song

Interactive

18,289 views 18 this week
2 commentsread comments
1 2 3 4 5
x 5
add to favorites
×
Save as Personal and add changes to this tab that will be seen only by you. Learn more ›
×
You can save this tab as Personal to edit and correct it or add notes. All changes will be seen only by you. Learn more »
launch autoscroll
font size
0
reset
how to read this tab
guitar tuner
edit
Autoscroll
slow
fast
+/-
esc
set tempo
stop
Frogs
Alice in Chains
Unplugged
Tabbed by: Che Zoso (slimslowest2@aol.com)

First Tab but this is how unplugged does it.
Same as studio version, except missing a lot of guitar fills,
if someone knows them throw em in.

Key:

b-Bend
r-Release bend
nh- Natural Harmonic (hold finger above the fret bar of the fret number and pick, You 
hear a pitch sound.)
Tuning:
Half Step down

Note: Spacing does not denote timing.  This tab has everything you need for unplugged, 
gotta put it together

Main Riff Repeat 4x,
e|-------------------------------------------|
B|-------------------------------------------|
G|--------0-------0------0------0---0----0---|
D|-------------------------------------------|
A|-----4-------4-------4------4--------------|
E|---0-------0-------0------0-----4----3-----|

Lead, Plays over Main Riff, along with the lyrics

e|-----------------------------------------|
B|-----------------------------------------|
G|-----6b-r----------------7nh-------------|
D|------------5----6b------------0--0---0--|
A|-----------------------------------------|
E|---------0----0--------------0--4----3---|

Prechorus (oo part)

Repeat so many times then back to verse.
e|------------------------------------|
B|------------------------------------|
G|------------------------------------|
D|------5------5-----5------5---------|
A|----5------4-----5------4-----------|
E|--3-----3------3------3-------------|

After 2nd verse, it goes into Prechorus Then into chorus
e|----------------------------3--------------------------|
B|----------------------------3--------------------------|
G|----------------------------0-----(Strum this chord)---|
D|----------5-------5---------2--------------------------|
A|-------3-------3--3---------3--------------------------|
E|----4-------4--4--4------------------------------------|

Repeast chorus 2x then lead plays along (why's it have to be this way)
e|---------------------------8------10b---8-----8-------|
B|-----------------------8-----8-------------8----------|
G|---------------8--7-----------------------------------|
D|------5--6--------------------------------------------|
A|------------------------------------------------------|
E|------------------------------------------------------|

e|---------------------------8--------10b---8-----10b---|
B|-----------------------8------8--------------8--------|
G|--------------8---7-----------------------------------|
D|-----5--6---------------------------------------------|
A|------------------------------------------------------|
E|------------------------------------------------------|

That's it besides the adlib at the end, a chord is periodically strummed and muted 4and 
lead plays around with its natural harmonics

e|---------------------------------------------0---------|
B|----------7nh-----------7nh------------------0---------|
G|-----------------5nh-----------5nh-----------5nh-------|
D|-------------------------------------------------------|
A|-----------(done repeatedly till this comes up^)-------|
E|-------------------------------------------------------|

But like i said, its just like the studio version somebody comment on
some of those fills

            
            
Suggest correction
Creating personal tab
Creating personal tab
You can edit any tab online and save it as your Personal.

You can edit, replace or remove any tab part or add personal notes – all changes will be seen only by you.

Personal tabs can be accessed anytime from any device, even offline.
Learn more »
comments
print report bad tab
2 comments total.
0 reply
Dabog701 148 Aug 23, 2009 12:42 PM

Great tab, the unplugged version is so much better than the studio version!

0 reply
paulerxx 95 May 20, 2011 05:46 PM

Eb tuning..Like any other Alice In Chains song.

guest
You may want to rate the tab now too:
select rating
Wanna post a correction for this tab? Suggest correction