Oops, an error
Loading. Please wait.

Frogs Acoustic tab

version 4
version 4

Whole song

Interactive

3,308 views 15 this week
1 commentread comment
1 2 3 4 5
x 3
add to favorites
×
Save as Personal and add changes to this tab that will be seen only by you. Learn more ›
×
You can save this tab as Personal to edit and correct it or add notes. All changes will be seen only by you. Learn more »
launch autoscroll
font size
0
reset
how to read this tab
guitar tuner
edit
Autoscroll
slow
fast
+/-
esc
set tempo
stop
-------------------------------------------------------------------------------
                             Alice In Chains - Frogs (Unplugged)
-------------------------------------------------------------------------------
Tabbed by: Evan Hoffman
E-mail: evanator45yk8@gmail.com

Tuning: Eb (Eb,Ab,Db,Gb,Bb,Eb) (Half-Step)
-I was looking for the lead chorus fill on this song, and I came to the tab by Che 
Zoso (slimslowest2@aol.com) and I was
looking it over and I decided I wanted to make a couple corrections on the intro 
and I also tabbed the end of the song, 
so here it is.

Main Riff Repeat 4x,
e|-------------------------------------------|
B|-------------------------------------------|
G|-------------------------------------------|
D|--------5-------5------5------5---5----5---|
A|-----4-------4-------4------4--------------|
E|---0-------0-------0------0-----4----3-----|

Lead, Plays over Main Riff, along with the lyrics

e|-----------------------------------------|
B|-----------------------------------------|
G|-----6b-r----------------7nh-------------|
D|------------5----6b------------0--0---0--|
A|-----------------------------------------|
E|---------0----0--------------0--4----3---|

Prechorus (oo part)

Repeat so many times then back to verse.
e|------------------------------------|
B|------------------------------------|
G|------------------------------------|
D|------5------5-----5------5---------|
A|----5------4-----5------4-----------|
E|--3-----3------3------3-------------|

After 2nd verse, it goes into Prechorus Then into chorus
e|----------------------------3--------------------------|
B|----------------------------3--------------------------|
G|----------------------------0-----(Strum this chord)---|
D|----------5-------5---------0--------------------------|
A|-------3-------3--3---------2--------------------------|
E|----4-------4--4--4---------3--------------------------|

Repeast chorus 2x then lead plays along (why's it have to be this way)
e|---------------------------8------10b---8-----8-------|
B|-----------------------8-----8-------------8----------|
G|---------------8--7-----------------------------------|
D|------5--6--------------------------------------------|
A|------------------------------------------------------|
E|------------------------------------------------------|

e|---------------------------8--------10b---8-----10b---|
B|-----------------------8------8--------------8--------|
G|--------------8---7-----------------------------------|
D|-----5--6---------------------------------------------|
A|------------------------------------------------------|
E|------------------------------------------------------|

End (4:30 - end)

e|------12+-----12+-----0-----------------------7+----------------0----------|
B|------12+--------12+-----12+------------------7+----------------0----------|
G|------12+--------------------12+--------------7+----------------0----------|
D|---------------------------------------------------------------------------|
A|---------------------------------------------------------------------------|
E|---------------------------------------------------------------------------|

e|---------------------------------------------------------------------------|
B|---------------------------------------------------------------------------|
G|---------------------------------------------------------------------------|
D|---------------------------------------------------------------------------|
A|------------------7\(scrape)-----------------------------------------------|
E|--------0------------------------------------------------------------------|

e|---------------------------------------------------------------------------|
B|--------7+---------------7+------------------7+--------------7+------------|
G|------------5+---------------5+------------------5+--------------5+--------|
D|---------------------------------------------------------------------------|
A|---------------------------------------------------------------------------|
E|---------------------------------------------------------------------------|

e|---------------------------------------------------------------------------|
B|--------7+---------------7+------------------7+--------------7+------------|
G|------------5+---------------5+------------------5+--------------5+--------|
D|---------------------------------------------------------------------------|
A|---------------------------------------------------------------------------|
E|---------------------------------------------------------------------------|

e|---------------------------------------------------------------------------|
B|--------7+---------------7+------------------7+--------------7+------------|
G|------------5+---------------5+------------------5+--------------5+--------|
D|---------------------------------------------------------------------------|
A|---------------------------------------------------------------------------|
E|---------------------------------------------------------------------------|

e|---------------------------------------------------------------------------|
B|--------7+---------------7+------------------7+--------------7+------------|
G|------------5+---------------5+------------------5+--------------5+--------|
D|---------------------------------------------------------------------------|
A|---------------------------------------------------------------------------|
E|---------------------------------------------------------------------------|

e|---------------------------------------------------------------------------|
B|--------7+---------------7+------------------7+--------------7+------------|
G|------------5+---------------5+------------------5+--------------5+--------|
D|---------------------------------------------------------------------------|
A|---------------------------------------------------------------------------|
E|---------------------------------------------------------------------------|

e|-------------------------------------------5+-------------7+---------------|
B|--------7+---------------7+-------------------------------7+---------------|
G|------------5+---------------5+---------------------------7+---------------|
D|---------------------------------------------------------------------------|
A|---------------------------------------------------------------------------|
E|---------------------------------------------------------------------------|

e|---------------------------------------------------------------------------|
B|-----------5---------------------------------------------------------------|
G|----------------4----------------------------------------------------------|
D|--------------------------5------------------------------------------------|
A|---------------------------------------------------------------------------|
E|-------------------------------------------4------3--------0---------------|

e|---------------------------------------------------------------------------|
B|--------7+---------------7+------------------7+--------------7+------------|
G|------------5+---------------5+------------------5+--------------5+--------|
D|---------------------------------------------------------------------------|
A|---------------------------------------------------------------------------|
E|---------------------------------------------------------------------------|

e|---------------------------------------------------------------------------|
B|--------7+---------------7+------------------7+--------------7+------------|
G|------------5+---------------5+------------------5+--------------5+--------|
D|---------------------------------------------------------------------------|
A|---------------------------------------------------------------------------|
E|---------------------------------------------------------------------------|

e|---------------------------------------------------------------------------|
B|--------7+---------------7+------------------7+----------------------------|
G|------------5+---------------5+------------------5+------------------------|
D|---------------------------------------------------------------------------|
A|---------------------------------------------------------------------------|
E|---------------------------------------------------------------------------|

e|---------------------------------------------------------------------------|
B|---------------------------------------------------------------------------|
G|----------3b----------------3----------------------------------------------|
D|----------------4-----5-----------------------4----------------------------|
A|---------------------------------4------5------------------------4b--------|
E|----------------------------------------------------3-----5-------------0--|

e|---------------------------------------------------------------------------|
B|---------------------------------------------------------------------------|
G|----------3b----------------3----------------------------------------------|
D|----------------4-----5-----------------------4----------------------------|
A|---------------------------------4------5------------------------4b--------|
E|----------------------------------------------------3-----5-------------0--|

e|---------------------------------------------------------------------------|
B|---------------------------------------------------------------------------|
G|----------3b----------------3----------------------------------------------|
D|----------------4-----5-----------------------4----------------------------|
A|---------------------------------4------5------------------------4b--------|
E|----------------------------------------------------3-----5-------------0--|

e|---------------------------------------------------------------------------|
B|---------------------------------------------------------------------------|
G|----------3b----------------3----------------------------------------------|
D|----------------4-----5-----------------------4----------------------------|
A|---------------------------------4------5------------------------4b--------|
E|----------------------------------------------------3-----5-------------0--|

e|---------------------------------------------------------------------------|
B|---------------------------------------------------------------------------|
G|----------3b----------------3----------------------------------------------|
D|----------------4-----5-----------------------4----------------------------|
A|---------------------------------4------5------------------------4b--------|
E|----------------------------------------------------3-----5-------------0--|

e|---------------------------------------------------------------------------|
B|---------------------------------------------------------------------------|
G|----------3b----------------3----------------------------------------------|
D|----------------4-----5-----------------------4----------------------------|
A|---------------------------------4------5------------------------4b--------|
E|----------------------------------------------------3-----5-------------0--|

e|---------------------------------------------------------------------------|
B|---------------------------------------------------------------------------|
G|----------3b----------------3----------------------------------------------|
D|----------------4-----5-----------------------4----------------------------|
A|---------------------------------4------5------------------------4b--------|
E|----------------------------------------------------3-----5-------------0--|

e|---------------------------------------------------------------------------|
B|---------------------------------------------------------------------------|
G|----------3b----------------3----------------------------------------------|
D|----------------4-----5-----------------------4----------------------------|
A|---------------------------------4------5------------------------4b--------|
E|----------------------------------------------------3-----5-------------0--|

e|---------------------------------------------------------------------------|
B|----------7+-------------7+------------------7+---------------7+-----------|
G|------5+-------------5+------------------5+---------------5+---------------|
D|---------------------------------------------------------------------------|
A|---------------------------------------------------------------------------|
E|---------------------------------------------------------------------------|

e|---------------------------------------------------------------------------|
B|----------7+-------------7+------------------7+---------------7+-----------|
G|------5+-------------5+------------------5+---------------5+---------------|
D|---------------------------------------------------------------------------|
A|---------------------------------------------------------------------------|
E|---------------------------------------------------------------------------|

e|---------------------------------------------------------------------------|
B|----------7+-------------7+------------------7+---------------7+-----------|
G|------5+-------------5+------------------5+---------------5+---------------|
D|---------------------------------------------------------------------------|
A|---------------------------------------------------------------------------|
E|---------------------------------------------------------------------------|

e|---------------------------------------------------------5+-----------5+---|
B|----------7+-------------7+------------------7+----------5+-----------5+---|
G|------5+-------------5+------------------5+--------------5+-----------5+---|
D|---------------------------------------------------------------------------|
A|---------------------------------------------------------------------------|
E|---------------------------------------------------------------------------|






************************************

| /   slide up
| \   slide down
| h   hammer-on
| p   pull-off
| ~   vibrato
| +   harmonic
| x   Mute note
| b   Bend
| pb  Pre-bend
| br  Bend release
| pbr Pre-bend release
| brb Bend release bend

************************************

            
            
Suggest correction
Creating personal tab
Creating personal tab
You can edit any tab online and save it as your Personal.

You can edit, replace or remove any tab part or add personal notes – all changes will be seen only by you.

Personal tabs can be accessed anytime from any device, even offline.
Learn more »
Give kudos to tab author, rate the tab!
1 2 3 4 5
comments
print report bad tab
1 comment total.
0 reply
Shametome 250 May 14, 2013 04:51 PM

Perfect tab, 5 stars.

guest
You may want to rate the tab now too:
select rating
Wanna post a correction for this tab? Suggest correction