Oops, an error
Loading. Please wait.

Get Born Again Bass Tab

version 1
version 1

Whole song

Interactive

1,777 views 9 this week
no commentswrite comment
1 2 3 4 5
excellent!
x 1
add to favorites
launch autoscroll
font size
0
reset
guitar tuner
Tab Pro tools
  • play this tab
  • loop segment
  • change instrument
  • show fretboard
  • metronome
Autoscroll
slow
fast
+/-
esc
set tempo
stop
Contributor
Difficulty
Tuning
intermediate
D# G# C# F# A# D#
Alice in Chains - "Get Born Again"
From the "Music Box" and "Greatest Hits" set
Bass Tuning - Eb Ab Db Gb
tabbed by jjhand


Lyrics:
"Sat Sufferin 
I knew him when 
Fair weather friends of mine 

Try not to think 
I merely blink 
Hope to wish away the lies"


Then, play Intro (0:13) 4x
Gb|-----------------|
Db|-----------------|
Ab|-----------------|
Eb|-1-0---0---0---0-|




Verse Riff (0:50) - play 2x
Gb|-----------------|-----------------|
Db|-----------------|-----------------|
Ab|-5---------------|-----------------|
Eb|---0---0---0---0-|-1-0---0---0---0-|
  "Can you protect   me when I'm wrecked"
         "I pretend you're still alive"




End Verse Riff (0:59), played 2x
Gb|-----------------|-----------------|
Db|-0---------------|-0---------------|
Ab|---0---1---2-----|---0---1---------|
Eb|---------------0-|-----------1---0-|




Verse 2, play 4x
Gb|-----------------|-----------------|-----------------|-----------------|
Db|-----------------|-----------------|-----------------|-----------------|
Ab|-----------------|-----------------|-5---------------|-----------------|
Eb|-1-0---0---0---0-|-1-0---0---0---0-|---0---0---0---0-|-1-1-1-1-1-3-3-1-|

Lyrics:
"Oh...  denied... all... and tied all the lies"

"I choose to day 
One deepen grave 
Thick fog that hide our smiles 

Clear all your sins 
Get born again 
Just repeat a couple lies"




Play End Verse Riff Again 4x (8 bars) - (1:45)

Play Verse 2 Riff 2x 

Play End Verse Riff Again 4x (2:22)

Play Verse 2 Riff 2x at beginning of Solo

Play End Verse Riff Again 4x to end of solo (2:59)

Hold a low Eb note at the end of the solo

Play Verse 2 Riff until end of song


KEY
************************************

| /   slide up
| \   slide down
| h   hammer-on
| p   pull-off
| ~   vibrato
| b   Bend

************************************
comments
We did not receive enough feedback on this tab! Please rate:
print report bad tab
1 2 3 4 5
I want to post or [tab]
guest
You may want to rate the tab now too:
select rating
Please do not post tabs as comments. Select "correction" instead!