Oops, an error
Loading. Please wait.

Get Born Again Bass Tab

version 2
version 2

Whole song

Interactive

499 views 1 this week
no commentswrite comment
1 2 3 4 5
please rate
add to favorites
launch autoscroll
font size
0
reset
guitar tuner
Autoscroll
slow
fast
+/-
esc
set tempo
stop
Help us to improve Ultimate-Guitar.com Take our survey!
×
Author
tuning 1/2 step down

:40 x4
|--------------|
|--------------|
|--------------|
|-1-0--0--0--0-|

:49 x2
|----------------------------|
|-0--------------------------|
|----------------------------|
|---0--0--0--0--1-0--0--0--0-|

:58 x2
|----------------------------|
|-0-------------0------------|
|---0--1--2-------0--1-------|
|------------0----------1--0-|

1:07 x4
|-----------------------------------------------------------------|
|-0-------------------------------0-------------------------------|
|-----------------------------------------------------------------|
|---0--0--00--0--1-0--0--00--0------0--0--00--0--1-1-1-1-1-3-3-1--|

1:45 x4
|----------------------------|
|-0-------------0------------|
|---0--1--2-------0--1-------|
|------------0----------1--0-|

2:03 x2
|-----------------------------------------------------------------|
|-0-------------------------------0-------------------------------|
|-----------------------------------------------------------------|
|---0--0--00--0--1-0--0--00--0------0--0--00--0--1-1-1-1-1-3-3-1--|

2:22 x4
|----------------------------|
|-0-------------0------------|
|---0--1--2-------0--1-------|
|------------0----------1--0-|

2:40 x2
|-----------------------------------------------------------------|
|-0-------------------------------0-------------------------------|
|-----------------------------------------------------------------|
|---0--0--00--0--1-0--0--00--0------0--0--00--0--1-1-1-1-1-3-3-1--|

2:59 x4
|----------------------------|
|-0-------------0------------|
|---0--1--2-------0--1-------|
|------------0----------1--0-|

3:17 
|---|
|---|
|---|
|-0-| let ring

3:37 x10
|-----------------------------------------------------------------|
|-0-------------------------------0-------------------------------|
|-----------------------------------------------------------------|
|---0--0--00--0--1-0--0--00--0------0--0--00--0--1-1-1-1-1-3-3-1--|
Suggest correction
Give kudos to tab author, rate the tab!
1 2 3 4 5
comments
print report bad tab
guest
You may want to rate the tab now too:
select rating
Wanna post a correction for this tab? Suggest correction