Oops, an error
Loading. Please wait.

Get Born Again Tab

version 5
version 5

Whole song

Interactive

9,798 views 3 this week
2 commentsread comments
1 2 3 4 5
excellent!
x 8
add to favorites
launch autoscroll
font size
0
reset
how to read this tab
guitar tuner
Tab Pro tools
  • play this tab
  • loop segment
  • change instrument
  • show fretboard
  • metronome
×
Best way to learn
"Get Born Again"
Autoscroll
slow
fast
+/-
esc
set tempo
stop
Contributor
----------------------------------------------------------------------------
                             Get Born Again - Alice In Chians
----------------------------------------------------------------------------
Tabbed by: Madison In Chains
Email:grunger66@sbcglobal.net

Tuning:Standard

Intro(wah)
e|-------------------------------------------------------------------------|
B|-------------------------------------------------------------------------|
G|-------------------------------------------------------------------------|
D|---9--9----9/10-----9---9---9/11-----------9---9---9---10-10-10\9--------|
A|-7---7--7-7--(8)--7---7--7-7--(9)------7---7---7--7/--8--8--8------------|
E|-------------------------------------------------------------------------|


Prechorus: F5 E5 E5 E5 F5 E5 E5 E5

Chorus: "i pretend you're still alive"
e|-------------------------------------------------------------------------|
B|--3---------------------3------------------------------------------------|
G|--2--2-3-4--------------2-2-3--------------------------------------------|
D|--0--2-3-4-2------------0-2-3-3-2----------------------------------------|
A|-----0-1-2-2--------------0-1-3-2----------------------------------------|
E|-----------0------------------1-0----------------------------------------|

Back to Intro
Then Chorus

I cant figure out the bends but they are in the key of G major/ E minor

Tntro
Chorus

Solo: im sure this is 100% correct

Part I
e|-----12*-----------------------------------------------------------------|
B|--12*---12*--0--0--0------0-0---0-------0--0-----0-0-0--0--0--0-0--0-----|
G|------------14--12-12h14/16-14-12h14p12-11-11h12-7-9-9b-9--7--2-4-4b-----|
D|-------------------------------------------------------------------------|
A|-------------------------------------------------------------------------|
E|-------------------------------------------------------------------------|

Part II
e|------12--15b-15-14-12-14b---12------------------------------------------|
B|----12--12-----------------15--15--12-14v-12v----------------------------|
G|-14b----------------------------------14v-12v----------------------------|
D|----------------------------------------------14v-12v--------------------|
A|------------------------------------------------------13-12-10-----------|
E|-------------------------------------------------------------------------|

Part III
e|----------------------------12---15b-17b---------------------------------|
B|--------------------------12--12-----------------------------------------|
G|---------------------12-14-----------------------------------------------|
D|---------------12-14-----------------------------------------------------|
A|-------10h12/14----------------------------------------------------------|
E|-10h12-------------------------------------------------------------------|

Part IV
e|-------------------------------------------------------------------------|
B|---------------------------------15v-------------------------------------|
G|--------------------14-16-17-16v-----------------------------------------|
D|-----------12-14-17------------------------------------------------------|
A|-/10 12-14---------------------------------------------------------------|
E|-------------------------------------------------------------------------|

e|--22b-22-17b-17v(continue bend)------------------------------------------|
B|-------------------------------------------------------------------------|
G|---------------------------------------(feedback w/ bar)-----------------|
D|-------------------------------------------------------------------------|
A|-------------------------------------------------------------------------|
E|-------------------------------------------------------------------------|

Ok there you go the real Get Born Again tab w/ the solo
thanks
comments
print report bad tab
2 comments total.
-1 reply
MadisonInChains wrote on July 29 2007, 01:23 pm

the *= harmonics

+4 reply
SpaceJunkie wrote on May 14 2013, 10:42 pm


i think it goes up to the 10/12th fret in the intro not 9/11

I want to post or [tab]
guest
You may want to rate the tab now too:
select rating
Please do not post tabs as comments. Select "correction" instead!