Oops, an error
Loading. Please wait.

God Am Bass Tab

version 1
version 1

Whole song

Interactive

1,591 views 3 this week
no commentswrite comment
1 2 3 4 5
please rate
add to favorites
launch autoscroll
font size
0
reset
guitar tuner
Autoscroll
slow
fast
+/-
esc
set tempo
stop
Help us to improve Ultimate-Guitar.com Take our survey!
×
Author
tuning: 1/2 step down

x8
G|----------------------------------------------------|
D|----------------------------------------------------|
A|----------------------------------------------------|
E|--7--5-5-X-1---1------1-1-1-1--1------1-1-1-----1-1-|
       
x4
G|------------------------------|
D|------------------------------|
A|------------------------------|
E|--7--5---1--1---3-3-3-3/5-5-5-|

x4
G|----------------------------------------------------|
D|----------------------------------------------------|
A|----------------------------------------------------|
E|--7--5-5-X-1---1------1-1-1-1--1------1-1-1-----1-1-|

x4
G|------------------------------|
D|------------------------------|
A|------------------------------|
E|--7--5---1--1---3-3-3-3/5-5-5-|

x4
G|------------|--------------------------|
D|------------|--------------------------|
A|------------|--5/7-7-7-7\5-5-3-2-3-2-0-|
E|--7--5---1--|--------------------------|
             
x4
G|----------------------------------------------------|
D|----------------------------------------------------|
A|----------------------------------------------------|
E|--7--5-5-X-1---1------1-1-1-1--1------1-1-1-----1-1-|

x4
G|------------------------------|
D|------------------------------|
A|------------------------------|
E|--7--5---1--1---3-3-3-3/5-5-5-|

x4
G|------------|--------------------------|
D|------------|--------------------------|
A|------------|--5/7-7-7-7\5-5-3-2-3-2-0-|
E|--7--5---1--|--------------------------|
Suggest correction
Give kudos to tab author, rate the tab!
1 2 3 4 5
comments
print report bad tab
guest
You may want to rate the tab now too:
select rating
Wanna post a correction for this tab? Suggest correction