Oops, an error
Loading. Please wait.

Got Me Wrong Acoustic tab

version 4
version 4

Whole song

Interactive

1,315 views 42 this week
no commentswrite comment
1 2 3 4 5
x 3
add to favorites
×
Save as Personal and add changes to this tab that will be seen only by you. Learn more ›
×
You can save this tab as Personal to edit and correct it or add notes. All changes will be seen only by you. Learn more »
launch autoscroll
font size
0
reset
how to read this tab
guitar tuner
backing track
0:00
0:00
edit
Autoscroll
slow
fast
+/-
esc
set tempo
stop
Difficulty
-------------------------------------------------------------------------------
			     SONG NAME - Band Name
-------------------------------------------------------------------------------
Tabbed by: Kevin D.
E-mail:

Tuning: CAPO ON FIRST FRET. You can tune down but this version is right. Its easier to 
slap on a capo instead of
re-tunning your whole guitar for one song. I only tabbed the main parts of the song. 
Just listen to the up and down
strokes. The first tab is the main verse and the second tab is the main chorus. The 
third part is the change at the end
of the chorus. It's all you need to complete the song.


Verse chords...continue the same to the chorus

    Yea.......................,It goes away.........
e|--2-2----2-2-2-----0--------2-2----2-2-2----0--------------------------------------|
B|--2-2----3-3-3-----0--------2-2----3-3-3----0--------------------------------------|
G|--3-3----2-2-2-----1--------3-3----2-2-2----1--------------------------------------|
D|--4-4--------------2--------4-4-------------2--------------------------------------|
A|--4-4--------------2--------4-4-------------2--------------------------------------|
E|--2-2--------------0--------2-2-------------0--------------------------------------|

Chorus:

 As of.......Now I.....Beg you...Got me wrong...........
e|--0-0-------1-1-------0-0------1-1---------2-2----2-2-2---0-----------------------------|
B|--1-1-------3-3-------0-0------0-0---------2-2----3-3-3---0-----------------------------|
G|--0-0-------3-3-------1-1------0-0---------3-3----2-2-2---1-----------------------------|
D|--2-2-------3-3-------2-2------0-0---------4-4------------2-----------------------------|
A|--3-3-------1-1-------2-2------2-2---------4-4------------2-----------------------------|
E|----------------------0-0------3-3---------2-2------------0-----------------------------|

Repeat the pattern D E G until the change:

havent felt like this in so long........That don't last forever....somethings gotta turn out
e|--2-2----0-0-----1-1-1-1--------------0-0-0-0-------------1-1-1-1--------------------------|
B|--3-3----0-0-----0-0-0-0--------------0-0-0-0-------------0-0-0-0--------------------------|
G|--2-2----1-1-----0-0-0-0--------------1-1-1-1-------------0-0-0-0--------------------------|
D|---------2-2-----0-0-0-0--------------2-2-2-2-------------0-0-0-0--------------------------|
A|---------2-2-----2-2-2-2--------------2-2-2-2-------------2-2-2-2--------------------------|
E|---------0-0-----3-3-3-3--------------0-0-0-0-------------3-3-3-3--------------------------|

(Back to the original chords)
  right
e|---2-2---2-2-2----0--------------------------------------------------------------|
B|---2-2---3-3-3----0--------------------------------------------------------------|
G|---3-3---2-2-2----1--------------------------------------------------------------|
D|---4-4------------2--------------------------------------------------------------|
A|---4-4------------2--------------------------------------------------------------|
E|---2-2------------0--------------------------------------------------------------| 


************************************

| /   slide up
| \   slide down
| H   hammer-on
| p   pull-off
| ~   vibrato
| +   harmonic
| x   Mute note
| B   Bend
| pb  Pre-bend
| br  Bend release
| pbr Pre-bend release
| brb Bend release bend

************************************

            
            
Suggest correction
Creating personal tab
Creating personal tab
You can edit any tab online and save it as your Personal.

You can edit, replace or remove any tab part or add personal notes – all changes will be seen only by you.

Personal tabs can be accessed anytime from any device, even offline.
Learn more »
Give kudos to tab author, rate the tab!
1 2 3 4 5
comments
print report bad tab
guest
Wanna post a correction for this tab? Suggest correction