Oops, an error
Loading. Please wait.

Greatest Hits Tab

30,456 views 1 this week
5 commentsread comments
1 2 3 4 5
excellent!
x 8
add to favorites
launch autoscroll
font size
0
reset
how to read this tab
guitar tuner
Autoscroll
slow
fast
+/-
esc
set tempo
stop
Help us to improve Ultimate-Guitar.com Take our survey!
×
Author
Band- Alice In Chains
Album- Greatest Hits

1.MAN IN THE BOX

Intro - Play 2x
---------------

eb|---------------------------|---------------------------|
Bb|---------------------------|---------------------------|
Gb|---------------------------|---------------------------|
Db|---------------------------|---------------------------|
Ab|---5----X----5----5--------|---5----X----5----5--------|
Eb|---0----X----0----0----0---|---0----X----0----0----0---|

eb|---------------------------|---------------------------|
Bb|---------------------------|---------------------------|
Gb|---------------------------|---------------------------|
Db|---------------------------|---------------------------|
Ab|---5----X----5----5--------|---5----X----5-----------5-|
Eb|---0----X----0----0----0---|---0----X----0---0h5h7-----|

w/ Talk Box - Play 2x
---------------------

    Ah_____  Ah___   Ah___ etc. etc.
eb|---------------------------|---------------------------|
Bb|---------------------------|---------------------------|
Gb|----------7~~~~---9~~~~----|---------------------------|
Db|---9~~~~-------------------|---7~~~~--9~~~~---5~~~~~---|
Ab|---------------------------|---------------------------|
Eb|---------------------------|---------------------------|

eb|---------------------------|---------------------------|
Bb|---------------------------|---------------------------|
Gb|----------5~~~~------------|---------------------------|
Db|---7~~~~-------------------|---------------------------|
Ab|------------------7~~~~----|-----7~~------------5------|
Eb|---------------------------|-------------0h5h7---------|

Verse w/ Talk Box
-----------------

      I'm______________ the man____________ in the box.

eb|---------------------------|---------------------------|
Bb|---------------------------|---------------------------|
Gb|---------------------------|---------------------------|
Db|---------------------------|---------------------------|
Ab|---5----X----5----5--------|---5----X----5----5--------|
Eb|---0----X----0----0----0---|---0----X----0----0----0---|

eb|---------------------------|---------------------------|
Bb|---------------------------|---------------------------|
Gb|---------------------------|---------------------------|
Db|---------------------------|---------------------------|
Ab|---5----X----5----5--------|---5----X----5-----------5-|
Eb|---0----X----0----0----0---|---0----X----0---0h5h7-----|

      Buried__________ in_________________ my ***.

eb|---------------------------|---------------------------|
Bb|---------------------------|---------------------------|
Gb|---------------------------|---------------------------|
Db|---------------------------|---------------------------|
Ab|---5----X----5----5--------|---5----X----5----5--------|
Eb|---0----X----0----0----0---|---0----X----0----0----0---|

eb|---------------------------|---------------------------|
Bb|---------------------------|---------------------------|
Gb|---------------------------|---------------------------|
Db|---------------------------|---------------------------|
Ab|---5----X----5----5--------|--------5------5---7~~~~---|
Eb|---0----X----0----0----0---|----0------0---------------|

Pre-Chorus, Talk Box Off
------------------------

     Won't___________________  you______________________

eb|---------------------------|---------------------------|
Bb|---------------------------|---------------------------|
Gb|---------------------------|---------------------------|
Db|---------------------------|---------------------------|
Ab|--5--5--7--5--5--7--5--5---|--5--5--7--5--5--7--5--5---|
Eb|--3--3--3--3--3--3--3--3---|--3--3--3--3--3--3--3--3---|
     PM................................................

     come____________________  and______________ save me?

eb|---------------------------|---------------------------|
Bb|---------------------------|---------------------------|
Gb|---------------------------|---------------------------|
Db|---------------------------|---------------------------|
Ab|--5--5--7--5--5--7--5--5---|--5--5--7--5--5--5--7--5---|
Eb|--3--3--3--3--3--3--3--3---|--3--3--3--3--3--3--3--3---|
     PM................................................

Talk Box On
                                                   Save___

eb|---------------------------|---------------------------|
Bb|---------------------------|---------------------------|
Gb|---------------------------|---------------------------|
Db|---------------------------|---------------------------|
Ab|---5---------5----5~~------|---5----X----5----5--------|
Eb|--------0--------------0---|---0----X----0----0----0---|

   me______.
                                      (Fill 1)
eb|---------------------------|---------------------------|
Bb|---------------------------|---------------------------|
Gb|---------------------------|---------------------------|
Db|---------------------------|---------------------------|
Ab|---5----X----5----5--------|---5h7---5-----------------|
Eb|---0----X----0----0----0---|--------------7--6--5--3---|

                                      (FIll 2)
             eb|--------------------------------------------|
             Bb|-14^Half-14-14^Half-14--12------------------|
                     Gb|-14^Half-14-14^Half-14--12----------|
                     Db|----------------------------14-12---|
                     Ab|------------------------------------|
                     Eb|------------------------------------|


Chorus, Talk Box Off - Play 4x
------------------------------
(Let Ring)

      Feed______________________________________ my eyes__

eb|----------------------3----|---------------------2-----|
Bb|----------------------3----|---------------------3-----|
Gb|----------------------0----|---------------------2-----|
Db|---2------------------0----|---------------------0-----|
Ab|---2-----------------------|---------------------0-----|
Eb|---0------------------3----|---------------------------|

     (Can___ you_____ sew them______ shut?___)

eb|---------------------------|---------------------------|
Bb|---------------------------|---------------------------|
Gb|---2-----------------------|---------------------------|
Db|---2-----------------------|---------------------------|
Ab|---0-----------------------|---------------------------|
Eb|---------------------------|-------------0---3^(1/4)---|

SOLO w/ Wah Wah Pedal
---------------------

eb|-------------------------------------------------------|
Bb|-------------------------------------------------------|
Gb|-------------------------------------------------------|
Db|--2p0h2p0h2p0h2p0h2p0h2p0h2p0h2p0h2p0h2p0h2p0h2p0h2p0--|
Ab|-------------------------------------------------------|
Eb|-------------------------------------------------------|

eb|-------------------------------------------------------|
Bb|-------------------------------------------------------|
Gb|-------------------------------------------------------|
Db|--2p0h2p0h2p0h2p0h2p0h2p0h2p0h2p0h2p0h2p0h2p0h2p0h2p0--|
Ab|-------------------------------------------------------|
Eb|-------------------------------------------------------|

eb|-------------------------------------------------------|
Bb|-------------------------------------------------------|
Gb|---------7h9--9^Full---9--7----------------------------|
Db|----7h9-----------------------9--8--7------7--7^Full---|
Ab|---------------------------------------10--------------|
Eb|-------------------------------------------------------|

         Hold Bend....................................
eb|-------------------------------------------------------|
Bb|-------------------------------------------------------|
Gb|--14^Full--14-14-14-14-14-14-14-14-14-14-14-14(1/2)----|
Db|-------------------------------------------------------|
Ab|-------------------------------------------------------|
Eb|-------------------------------------------------------|

    ...........
eb|-------------------------------------------------------|
Bb|----------------------------------12h15p12h15p12h15----|
Gb|-14-14-14-14-14^Full-14p12-----------------------------|
Db|---------------------------14~~~~----------------------|
Ab|-------------------------------------------------------|
Eb|-------------------------------------------------------|

eb|--12-12-15^Half-15-12----------------------------------|
Bb|-------------------------------------------------------|
Gb|----------------------12--14~~~~-----------------------|
Db|--------------------------------------------5----------|
Ab|--------------------------------------X-X-------7------|
Eb|-----------------------------------3--X-X--------------|

eb|-------------------------------------------------------|
Bb|---------------------------------12--------------------|
Gb|--------12--14^Full--12--------------15-14-12-14^Full--|
Db|--12h14-----------------14--12~~-----------------------|
Ab|-------------------------------------------------------|
Eb|-------------------------------------------------------|

eb|--------------------------------15h17^Half-17-15-------|
Bb|--------------------------15h17------------------15~~~-|
Gb|-14^Full--12-----15~~~~--------------------------------|
Db|-------------14----------------------------------------|
Ab|-------------------------------------------------------|
Eb|-------------------------------------------------------|

eb|----X--X--------X--------------------------------------|
Bb|-5--X--X--5--5--X--4--4--------------------------------|
Gb|-4--X--X--4--4--X--4--4--------------------------------|
Db|-2--X--X--2--2--X--2--2----------2~~---X-X-X-X------0--|
Ab|-------------------3--3----------------X-X-X-X--0h2----|
Eb|--------------------------3^Half-------X-X-X-X---------|

eb|-------------------------------|
Bb|-------------------------------|
Gb|-------------------------------|
Db|--5--2-----2---------2---------|  END SOLO
Ab|--------5-----5----------------|
Eb|------------------3-----3------|

2.THEM BONES

Tuning Db Ab Db Gb Bb Eb  aka C# G# C# F# A# D#

Intro:
eb|-----------------------------------------||
Bb|10---------------------------------------||
Gb|10---------------------------------------||o
Db|10---------------------------------------||o
Ab|-0--0--0--1--1--1--1--2--2--2--3--0--0---||
Db|-0--0--0--1--1--1--1--2--2--2--3--0--0---||
pm     ......................................

eb|----------------------------------------|
Bb|-10-------------------------------------|
Gb|-10-------------------------------------|
Db|-10-------------------------------------|
Ab|--0----0--0--1--1--1--1--2--2--2--3-----|
Db|--0----0--0--1--1--1--1--2--2--2--3-----|
pm        ................................

Verses:
eb|---------------------------------||
Bb|---3-----------------------------||
Gb|---2-----------------------------||o
Db|---0------1-------2.------3------||o repeat
Ab|---0------1-------2.------3------||
Db|---0------1-------2.------3------||

eb|---------------------------------|
Bb|---3-----------------------------|
Gb|---2-----------------------------|
Db|---0------1-------2.------3---0--|
Ab|---0------1-------2.------3---0--|
Db|---0------1-------2.------3---0--|

Chorus:
eb|-----------------------------------------------|
Bb|-------------------------------------------10--|
Gb|--------------------------------------------9--|
Db|--------------------------------------9/11-----|
Ab|--/8-----8-----8--8--8--7---7--7--7------------|
Db|--/8-----8-----8--8--8--7---7--7--7------------|

eb|---------------------------------------------|-------|
Bb|---------------------------------------------|-------|
Gb|---------------------------------------------|-------|
Db|---------------------------------------------|-------|
Ab|--10---10-----10--10--10--9----9--9--9--9--8-|--8--0-|
Db|--10---10-----10--10--10--9----9--9--9--9--8-|--8--0-|
                                                   ^  ^ dont play
							these 1st time

Guitar Solo: w/heavy distortion (guitar 2)
eb|------------------------------------------------------------|
Bb|------------------------------N.H---------------------------|
Gb|-------------------------------4*------------------5---12^--|
Db|-3-------3-------5-----6-----5---3^-----------5/7-----------|
Ab|---5-5-5---5-5-5---5-5---5-5--------5-3-5---3---------------|
Db|------------------------------------------------------------|
pm    .....   .....   ...   ...

eb|----------------------------------------------------------|
Bb|----------------------------------------------------------|
Gb|-12^--(12)---12^p10---------------------------------------|
Db|----------------------12----10h12p10----------------------|
Ab|-------------------------------------12p10-10\8--10^---8--|
Db|----------------------------------------------------------|

eb|----------------------------------------------------------------|
Bb|-----------13--13--13--11---10h11p10----------------------------|
Gb|--9-----9-----------------------------10------------------------|
Db|------------------------------------------12--------------10-12-|
Ab|--------------------------------------------------8-10-12-------|
Db|----------------------------------------------------------------|
pm                                                   ..............

eb|----------------------------------------------------------------|
Bb|------10h11-p10--------10-11-13^--11-13-11--10-------8-10-10^---|
Gb|-9-10-----------------------------------------------------------|
Db|----------------------------------------------------------------|
Ab|----------------------------------------------------------------|
Db|----------------------------------------------------------------|
pm......

eb|-15^-----15--13-----13--------------------20^----20--18--17-----|
Bb|-----------------15----15--15^----15------------------------20--|
Gb|----------------------------------------------------------------|
Db|----------------------------------------------------------------|
Ab|----------------------------------------------------------------|
Db|----------------------------------------------------------------|

eb|-17--------------------------------------------------------------|
Bb|-----20^--20--18-----18------18h20p18----18h20p18----18h20p18----|
Gb|-----------------19------19-----------19----------19----------19-|
Db|-----------------------------------------------------------------|
Ab|-----------------------------------------------------------------|
Db|-----------------------------------------------------------------|

eb|-----------------------------------------------------------------|
Bb|-18h20p18----18h20p18----18h20p18----18h20p18----18--20^--20--18-|
Gb|----------19----------19----------19----------19-----------------|
Db|-----------------------------------------------------------------|
Ab|-----------------------------------------------------------------|
Db|-----------------------------------------------------------------|

gradual bend         ************************************
eb|-----------------------------------------------------------------|
Bb|-----18----------------------------------------------------------|
Gb|--19----19--19--/12^--^--12^--12^--12^--12^--12^--12^--12^p10----|
Db|--------------------------------------------------------------12-|
Ab|-----------------------------------------------------------------|
Db|-----------------------------------------------------------------|
w/wah        .......................................................

continued: w/wah
eb|----------------------------------------------------------------|
Bb|----------------------------------------------------------------|
Gb|-10---------10--------------------------------------------------|
Db|-------12---------12----10p12--12--12--12--10--10---------------|
Ab|---------------------------------------------------12\----------|
Db|----------------------------------------------------------------|

During the end of the solo guitar 1 uses his drive bar and hits
the B string 10th fret first, then A string open and  has
it so his strings are very slacky towards the end.

Coda/outro:
eb|-----------------------------------------------|
Bb|-------------------------------------------10--|
Gb|--------------------------------------------9--|
Db|--------------------------------------9/11-----|
Ab|--/8-----8-----8--8--8--7---7--7--7------------|
Db|--/8-----8-----8--8--8--7---7--7--7------------|

eb|---------------------------------------------------|
Bb|---------------------------------------------------|
Gb|---------------------------------------------------|
Db|---------------------------------------------------|
Ab|--10---10-----10--10--10--9----9--9--9--9--8--8--0-|
Db|--10---10-----10--10--10--9----9--9--9--9--8--8--0-|

eb|-----------------------------------------------|
Bb|-------------------------------------------10--|
Gb|--------------------------------------------9--|
Db|--------------------------------------9/11-----|
Ab|--/8-----8-----8--8--8--7---7--7--7------------|
Db|--/8-----8-----8--8--8--7---7--7--7------------|


eb|------------------------------------------------|
Bb|------------------------------------------------|
Gb|------------------------------------------------|
Db|------------------------------------------------|
Ab|--10---10-----10--10--10--9----9--9--9--9--8-\--|
Db|--10---10-----10--10--10--9----9--9--9--9--8-\--|

3.ROOSTER

intro, verse:

        F#5     A5~Asus2
Eb- E  02-0----5--0--0-|
Bb- B  02-0----5--0--0-|
F-- F# 00-0----7--3--3-|   repeat for duration of intro, 2 verses
Db- D  44-4----7--2--2-|   (Ain't found a way....leads me to nowhere)
Ab- A  44-4----0--0--0-|
Eb- E  02-0----|-------|

pre-chorus:

B       Asus2   F#5             B      Asus2
|-------0-------02-0----|-------|-------0-------|
0-------0-------02-0----|-------0-------0-------|
0-------3-------00-0----|-------0-------3-------|
4-------2-------44-4----|-------4-------2-------|
2-------0-------44-4----|-------2-------0-------|
|-------|-------02-0----|-------|-------|-------|
Here they come...               Yeah, here comes the Rooster...


chorus:

F#5     Asus2   F#5
02-0----0-------|--0----|
02-0----0-------|--0----|
00-0----3-------|--0----| repeated several times
44-4----2-------|--4----|
44-4----0---4320|--4----|
02-0----|-------0--0----|
   ^    ^          ^
   |    |          |
   |    CRUNCH!    OBCRUNCH!
   CRUNCH!
        You know he ain't gonna die...


"interlude riff":

F#5     E       F#5     Asus2
|-------|-------|-------|-------|
|-------|-------|-------|-------|
|-------|-------|-------|-------| repeat 2 more times
|-------|-------|-------|-------|
2124----4--2--4-1-------|-------|
2--2----0-------|20-----|-------|
                        ^
                        |
                       ********************************************
                       *This is the hardest part of the song...   *
                       *the guitar plays nothing here, even though*
                       *you ache to crunch out an Asus2!          *
                       ********************************************

Come out into another pre-chorus, chorus, verse, pre-chorus, chorus,
and then outro. Don't step on any mines while playing (even though
it'd be COOL!).


enjoy


             Rob Goggins  rob@praline.nrlssc.navy.mil
From: WLarmore@aol.com
Date: Sun, 11 Aug 1996 12:13:25 -0400


Here is the correct way to play this excellent song.  The other version is
terribly wrong.  You don't need any crazy alternate tunings besides the usual
1/2 step down.

Okay, here is the CORRECT way to play Rooster by Alice in Chains:


(As always, tune down 1/2 step!)

Intro:
     =

Guitar 1 (clean w/ chorus)     =


     F#  F#7add4         A   Aadd2

e----2-2-0---0-0-0-0--|--5-5-0---0-0-0-0-----|
B----2-2-0---0-0-0-0--|--5-5-0---0-0-0-0-----|
G----3-3-3---3-3-3-3--|--6-6-6---6-6-6-6-----|
D----4-4-4---4-4-4-4--|--7-7-7---7-7-7-7-----|   (Repeat a couple of times=
)
A----4-4-4---4-4-4-4--|--7-7-7---7-7-7-7-----|
E----2-2-2---2-2-2-2--|--5-5-5---5-5-5-5-----|


1st verse:

Guitar 1 repeats intro

Guitar 2 (w/ dist. & envelope filter) plays:

                           (fdbk)
e--------|-----|-----|-----|-----|-----|-----|-----|-----|-----------|
B--------|-----|-----|-----|-----|-----|-----|-----|-----|-----------|
G---6~~~~|~~~~~|~~~~~|~~~~~|~(6)~|~~~~~|~(6)~|~~~~~|~~~~~|~~~--------|
D--------|-----|-----|-----|-----|-----|-----|-----|-----|-----------|
A--------|-----|-----|-----|-----|-----|-----|-----|-----|---4--3--2-|
E--------|-----|-----|-----|-----|-----|-----|-----|-----|-----------|

e-------------|--------|---------|--5~~~-------|--5------|---------------=
--
B-------------|--------|----7~~~~|---------5-7-|----7----|--(7)~~~-------=
--
G-------------|--------|---------|--2~~~-------|--2------|---------------=
--
D-------4~~~~~|--------|--4------|---------2-4-|----4----|--(4)~~~-------=
--
A-------------|--------|---------|-------------|---------|---------------=
--
E--5-2--------|---5~~~~|---------|-------------|---------|---------------=
--

Chorus:

(I'm getting lazy, so you'll have to figure out the strumming by yourself=
=2E)
(It's not hard!)

   B   D                  F#7ADD4/E    F#     B/F#

e--7---10---X-X---         ---0--------2----------------------|
B--7---10---X-X---         ---0--------2-------4--------------|
G--8---11---X-X---         ---3--------3-------4--------------|
D--9---12---X-X---         ---4--------4-------4--------------|
A--9---12---X-X---         ---4--------4-------2--------------|
E--7---10---------         ---0--------2-------2--------------|


Then repeat the first B & D part, then this:

e--------0~~--|------------------|--------0~~---|-----5--(5)~~---------|
B--------0~~--|------------------|--------0~~---|-----5--(5)~~---------|
G--------3~~--|--2---------------|--------3~~---|--2--2--(2)~~---------|
D-----4--4~~--|--2---------------|--2-----4~~---|--2--2--(2)~~---------|
A--2--4--4~~--|--0--4~~-3~~-2~~--|--0--4--4~~---|--0--0--(0)~~---------|
E--0--2--2~~--|------------------|-----2--2~~---|----------------------|


Interlude:

e---------------|-------------|--------------|------------------------|
B---------------|-------------|--------------|------------------------|
G--4--3--4--4/6-|--6--4--4/6--|--3-----------|--4--3--4--4/6--6--6/9--|
D---------------|-------------|-----4--2--2--|------------------------|
A--2--1--2--2/4-|--4--2--2/4--|--1-----------|--2--1--2--2/6--4--4/7--|
E---------------|-------------|-----2--0--0--|------------------------|

e-----------------|----------------------------------------------------|
B-----------------|----------------------------------------------------|
G--9--9/11--9--11-|--14--11--9-----------------------------------------|
D-----------------|----------------------------------------------------|
A--7--7/9---7--9--|--12--9---7-----------------------------------------|
E-----------------|----------------------------------------------------|


2nd verse:
       fdbk                                                           =

e----|-------|----|----------|------|--------|--14---------|------------|
B----|-------|----|--17--14--|--17--|--(17)--|--------17~~-|-14---14~~--|
G----|-------|----|----------|------|--------|-----14------|-14---------|
D--4-|--(4)--|----|----------|------|--------|-------------|----17------|
A--4-|--(4)--|----|----------|------|--------|-------------|------------|
E--2-|--(2)--|----|----------|------|--------|-------------|------------|

e------------|-------------------------|----------------------------|---------|
B--14'-------|-------------------------|----------------------------|----17~~-|
G--14'-------|-------14----------14----|-------14----16----14-16/18-|-18------|
D------16~~~-|-14-16----16-14-16----16-|-14-16----16----16----------|---------|
A------------|-------------------------|----------------------------|---------|
E------------|-------------------------|----------------------------|---------|

Outro:
                           1/2             ALL BENDS 1/2
e--X--------|----|-16-17-16'`16--|-14------------------------------|-----------|
B----X------|----|---------------|-----16'`(16)-16'-16'-16'`(16)'--|-14-|-(14--|
G------X----|----|---------------|---------------------------------|----|------|
D--------4--|----|---------------|---------------------------------|----|------|
A--------4--|----|---------------|---------------------------------|----|------|
E--------2--|----|---------------|---------------------------------|----|------|

and that's it...


        -Will


From: WLarmore@aol.com
Date: Fri, 16 Aug 1996 19:02:33 -0400

Okay, here is the CORRECT way to play Rooster by Alice in Chains:
=0D

(As always, tune down 1/2 step!)
=0D
Intro:
     =

Guitar 1 (clean w/ chorus)     =

=0D
     F#  F#7add4         A   Aadd2
=0D
e----2-2-0---0-0-0-0--|--5-5-0---0-0-0-0-----|
B----2-2-0---0-0-0-0--|--5-5-0---0-0-0-0-----|
G----3-3-3---3-3-3-3--|--6-6-6---6-6-6-6-----|
D----4-4-4---4-4-4-4--|--7-7-7---7-7-7-7-----|   (Repeat a couple of times)
A----4-4-4---4-4-4-4--|--7-7-7---7-7-7-7-----|
E----2-2-2---2-2-2-2--|--5-5-5---5-5-5-5-----|
=0D

1st verse:
=0D
Guitar 1 repeats intro
=0D
Guitar 2 (w/ dist. & envelope filter) plays:
=0D
                           (fdbk)
e--------|-----|-----|-----|-----|-----|-----|-----|-----|-----------|
B--------|-----|-----|-----|-----|-----|-----|-----|-----|-----------|
G---6~~~~|~~~~~|~~~~~|~~~~~|~(6)~|~~~~~|~(6)~|~~~~~|~~~~~|~~~--------|
D--------|-----|-----|-----|-----|-----|-----|-----|-----|-----------|
A--------|-----|-----|-----|-----|-----|-----|-----|-----|---4--3--2-|
E--------|-----|-----|-----|-----|-----|-----|-----|-----|-----------|
=0D
e-------------|--------|---------|--5~~~-------|--5------|----------|
B-------------|--------|----7~~~~|---------5-7-|----7----|--(7)~~~--|
G-------------|--------|---------|--2~~~-------|--2------|----------|
D-------4~~~~~|--------|--4------|---------2-4-|----4----|--(4)~~~--|
A-------------|--------|---------|-------------|---------|----------|
E--5-2--------|---5~~~~|---------|-------------|---------|----------|
=0D


Chorus:
=0D
(I'm getting lazy, so you'll have to figure out the strumming by yourself=
=2E)
(It's not hard!)
=0D
   B   D                  F#7ADD4/E    F#     B/F#
=0D
e--7---10---X-X---         ---0--------2----------------------|
B--7---10---X-X---         ---0--------2-------4--------------|
G--8---11---X-X---         ---3--------3-------4--------------|
D--9---12---X-X---         ---4--------4-------4--------------|
A--9---12---X-X---         ---4--------4-------2--------------|
E--7---10---------         ---0--------2-------2--------------|
=0D

Then repeat the first B & D part, then this:
=0D
e--------0~~--|------------------|--------0~~---|-----5--(5)~~--|
B--------0~~--|------------------|--------0~~---|-----5--(5)~~--|
G--------3~~--|--2---------------|--------3~~---|--2--2--(2)~~--|
D-----4--4~~--|--2---------------|--2-----4~~---|--2--2--(2)~~--|
A--2--4--4~~--|--0--4~~-3~~-2~~--|--0--4--4~~---|--0--0--(0)~~--|
E--0--2--2~~--|------------------|-----2--2~~---|---------------|
---
=0D

Interlude:
=0D
e---------------|-------------|--------------|------------------------|
B---------------|-------------|--------------|------------------------|
G--4--3--4--4/6-|--6--4--4/6--|--3-----------|--4--3--4--4/6--6--6/9--|
D---------------|-------------|-----4--2--2--|------------------------|
A--2--1--2--2/4-|--4--2--2/4--|--1-----------|--2--1--2--2/6--4--4/7--|
E---------------|-------------|-----2--0--0--|------------------------|
=0D
e-----------------|----------------------------------------------------|
B-----------------|----------------------------------------------------|
G--9--9/11--9--11-|--14--11--9-----------------------------------------|
D-----------------|----------------------------------------------------|
A--7--7/9---7--9--|--12--9---7-----------------------------------------|
E-----------------|----------------------------------------------------|

=0D


2nd verse:
       fdbk                                                           =

e----|-------|----|----------|------|--------|--14---------|-------------|
B----|-------|----|--17--14--|--17--|--(17)--|--------17~~-|-14---14~~---|
G----|-------|----|----------|------|--------|-----14------|-14----------|
D--4-|--(4)--|----|----------|------|--------|-------------|----17-------|
A--4-|--(4)--|----|----------|------|--------|-------------|-------------|
E--2-|--(2)--|----|----------|------|--------|-------------|-------------|
=0D
e------------|-------------------------|----------------------------|----|
B--14'-------|-------------------------|----------------------------|----|
G--14'-------|-------14----------14----|-------14----16----14-16/18-|-18-|
D------16~~~-|-14-16----16-14-16----16-|-14-16----16----16----------|----|
A------------|-------------------------|----------------------------|----|
E------------|-------------------------|----------------------------|----|
----
=0D
Outro:
                           1/2             ALL BENDS 1/2
e--X--------|----|-16-17-16'`16--|-14------------------------------|-----------|
B----X------|----|---------------|-----16'`(16)-16'-16'-16'`(16)'--|-14-|-(14--|
G------X----|----|---------------|---------------------------------|----|------|
D--------4--|----|---------------|---------------------------------|----|------|
A--------4--|----|---------------|---------------------------------|----|------|
E--------2--|----|---------------|---------------------------------|----|------|

4.ANGRY CHAIR

Tuning low to high  Eb Ab Db Gb Bb Eb

Rhy. Fig. 1

Eb|--------------------------------------------------------------------------------|
Bb|--------------------------------------------------------------------------------|
Gb|--------------------------------------------------------------------------------|
Db|--------------------------------------------------------------------------------|
Ab|------2--------3b------------2---------------3b---------------------------------|
Eb|--0-------0-----------0--------------0------------------------------------------|

Fill 1                                       Fill 2
Eb|-------------------------------|------------------------------------------------|
Bb|-------------------------------|------------------------------------------------|
Gb|-------------------------------|------------------------------------------------|
Db|-------------------------------|------------------------------------------------|
Ab|--3-3-3-3--2-2-----------------|-7-9----4-5--7--9--2----------------------------|
Eb|--1-1-1-1--0-0---5b------------|-5-7----2-3--5--7--0--5b-5b-5b------------------|

5.WOULD?

Tune Down 1/2 step

Intro
e---------------------------------------------------------------|
b---------5-----------------------------------------------------|
g------4-------------4h6---4h6---4--4-----4h6----4h6--4--4------|
d--5-----------------4-----4-----4--5-----4------4----4--5------|
a---------------------------------------------------------------|
e---------------------------------------------------------------|

e---------------------------------------------------------------|
b-----------5---------------------------------------------------|
g--------4-------------4h6---4h6---4--4-----4h6----4h6--4--4----|
d---/5-----------------4-----4-----4--5-----4------4----4--5----|
a---------------------------------------------------------------|
e---------------------------------------------------------------|

Verse
e-------------------------------------------------------|
b-------------------------------------------------------|
g-------------------------------------------------------|
d----------2--------------------------------------------|
a-------2--------2h4--2h4--2---2-----2h4--2h4---2----2--|
e--2/3-----------2----2----2---3-----2----2-----2----3--|

e------------------------------------------------------|
b------------------------------------------------------|
g------------------------------------------------------|
d----------2-------------------------------------------|
a-------2--------2h4--2h4--2---2-----2h4--2h4---2---2--|
e--2/3-----------2----2----2---3-----2----2-----2---3--|


e-------------------------3-------3----3----3------|
b-------3---3---3------3--3-------3----3----3---0--|
g-------0---0---0------0--0-------0----0----0---0--|
d-------0---0---0------0--0-------0----0----0---0--|
a-------2---2---2------2--2-------2----2----2------|
e--3----3---3---3------3--3-------3----3----3------|

Chorus - repeat 4 times
e----------------------3-3--3-3--3-3--3-3--3-3--3-3--|
b----------------------3-3--3-3--3-3--3-3--3-3--3-3--|
g--4--4-4--4--4-4--4-4-0-0--0-0--0-0--0-0--0-0--0-0--|
d--4--4-4--4--4-4--4-4-0-0--0-0--0-0--0-0--0-0--0-0--|
a--2--2-2--2--2-2--2-2-0-0--0-0--0-0--0-0--0-0--0-0--|
e----------------------3-3--3-3--3-3--3-3--3-3--3-3--|

Solo - guitar1
e--------------------------------------------------------------------------|
b--------------------------------------------------------------------------|
g--6h7p6~~~~~~~/11~~~~~9-11-11^-rb(11)--9-11-9-11-9------------------------|
d--------------------------------------------------------------11----11~~~~|
a--------------------------------------------------------------------------|
e--------------------------------------------------------------------------|
       guitar2 play twice w/ guitar1
e---------------------------------------------------|
b---------------------------------------------------|
g---------------------------------------------------|
d------------------------------------------2--------|
a--4--4--4----4----4-----4--------------2--2--------|
e--2--2--2--0-2-------0--3--3--3--0--3--3--3--0--3--|

e-------------------------------------------------------|
b-------------------------------------------------------|
g-------------------------------------------------------|
d----------------------------------------------------2--|
a--2h4--4-4-4-4--4-------4-----------------2-2----2-----|
e--2----2-2-2-2------0---3---3--3--0--0--3-3-3-3--------|

e--------------------------------------------------|
b--------------------------------------------------|
g--------------------------------------------------|
d--9-7-9^hb9rb(9)-7---7-------------------7--9/11--|
a--------------------9-----9-7-9-9-7-7-7-----------|
e--------------------------------------------------|

e---------------------------------------------------------------|
b---------------10------12/\hb12hb12rb(12)10-------10-----------|
g--9-11-11---11----11--------------------------11------------2--|
d------------------------------------------------------------2--|
a---------------------------------------------------------------|
e---------------------------------------------------------------|


Bridge - play twice
e--2---2-2-2-------------------------4-4--4--4--4-4-4-4--|
b--3---3-3-3--6-6-6--6-6-------------4-4--4--4--4-4-4-4--|
g--2---2-2-2--5-5-5--5-5-------------5-5--5--5--5-5-5-5--|
d--0---0-0-0--4-4-4--4-4-------------6-6--6--6--6-6-6-6--|
a-------------5-5-5--5-5--5-5--5--5--6-6--6--6--6-6-6-6--|
e---------------------------4--4--4--4-4--4--4--4-4-4-4--|

e--------3--3-3--3-3--3--3-3-3-3--------------------------------|
b--------3--3-3--3-3--3--3-3-3-3--------------------------------|
g--------4--4-4--4-4--4--4-4-4-4---1-1--1-1-1--1-1--1--1-1-1-1--|
d--------5--5-5--5-5--5--5-5-5-5---2-2--2-2-2--2-2--2--2-2-2-2--|
a--5--5--5--5-5--5-5--5--5-5-5-5---2-2--2-2-2--2-2--2--2-2-2-2--|
e--3--3--3--3-3--3-3--3--3-3-3-3---0-0--0-0-0--0-0--0--0-0-0-0--|

Outro
e---------------------------------------------------------|
b----6-----------6-----------6-----------6-----------6----|
g----5-----------5-----------5-----------5-----------5----|
d----4-----------4-----------4-----------4-----------4----|
a----5-----------5-----------5-----------5-----------5----|
e---------------------------------------------------------|

6.NO EXCUSES

Tune down 1/2 step

 Chords

         Aadd2:          Badd4:       G6:        E:
 e              0               0         0         0
 B              0               0         0         0
 G              6               8         4         1
 D              7               9         5         2
 A              7               9         5         2
 E              5               7         3         0

1. verse
     sl.
Aadd2 / Badd4              Aadd2    Badd4                    Aadd2
               It's alright.           There comes a time.

     sl.
Aadd2 / Badd4              Aadd2    Badd4                    Aadd2
              Got no patience   to search for peace of mind.

     sl.
Aadd2 / Badd4              Aadd2    Badd4                    Aadd2
              Layin' low.              Want to take it slow.

     sl.
Aadd2 / Badd4              Aadd2    Badd4                    Aadd2
              No more hiding or disguising truths I sold.


2. verse

It's okay. Had a bad day.
Hands are bruised from breaking rocks all day.
Drained and blue, I bleed for you.
You think it's funny, well, you're drowning in it too.

3. verse

Yeah, it's fine. We'll walk down the line.
Leave our rain, a cold trade for warm sunshine.
You my friend, I will defend.
And if we change, well, I love you anyway.


  G6            Aadd2
  Chorus 1 & 2
           Ev'ry day___     it's some _ thing,        hits
e:------------------|------------------------------------|
B:---------------7--|--(7)-------------------------------|
G:---4-----4--------|------------4--7b(9)rb(7)p4------4--|
D:7-----7-----7-----|------------------------------7-----|
A:------------------|------------------------------------|
E:------------------|------------------------------------|


  Badd4                                   Aadd2

  _   me     all   so    cold.                        You
e:--------------------------|-------------------------------|
B:-----------------------7--|-(7)-------7h8p7p5-------------|
G:-(4)----4-----4-----------|--------------------7b(9)rb(7)-|
D:-----7-----7-----4--7-----|-------------------------------|
A:--------------------------|-------------------------------|
E:--------------------------|-------------------------------|


  G6                    Aadd2

  find    me   sittin'  by        myself,                      no exc
e:-------------------------|-----------------------------------0----|
B:-------------------------|-----------------------------------0----|
G:-(7)----4-----4-------6--|-(6)--4------------7b(9)rb(7)b(9)-------|
D:-----7-----7-----7-------|---------7------------------------------|
A:-------------------------|----------------------------------------|
E:-------------------------|----------------------------------------|
                            2nd time substitute Fill 1

  E                                    Aadd2

  uses,      then I  know.
e:-(0)------------0-----|------------------------|
B:-(0)------------0-----|------------------------|
G:-------------------4--|-(4)--------------------|
D:-------------------4--|-(4)--------------------|
A:----------------------|------------------------|
E:----------------------|------------------------|

  Fill 1

e:-------------------------------|-----|-----|-----|-----|------|
B:-------------------------------|-----|-----|-----|-----|------|
G:(6)--4-----7b(9)rb(7)p4--------|-----|-----|-----|-----|------|
D:--------7----------------7b(9)-|-(7)-|-(7)-|-(7)-|-(7)-|------|
A:-------------------------------|-----|-----|-----|-----|------|
E:-------------------------------|-----|-----|-----|-----|------|



  Guitar Solo  w/chords from chorus

e:--12p10-----10----------------|-------------------------|
B:--------12------12~~~~--------|-------------------------|
G:-----------------------9b(11)-|-(9)----9--7~~~~~~~~~~~~~|
D:------------------------------|-------------------------|
A:------------------------------|-------------------------|
E:------------------------------|-------------------------|

e:-----12p10-----10----------------|-------------------------------------|
B:-----------12-----12~~~~--7b(9)--|----------12----------12-------------|
G:~~~-----------------------7b(9)--|----9/11------9b(11)------9b(11)--7--|
D:---------------------------------|-------------------------------------|
A:---------------------------------|-------------------------------------|
E:---------------------------------|-------------------------------------|
                            grad.bend


e:------------------------------|----------------------------|
B:------10--7-------------------|---------------------9b(10)~|
G:(7)----9--6--9b(11)--9--7-----|---------------------9b(11)~|
D:---------------------------9--|--9~~~~~~~~~~~~~~-----------|
A:------------------------------|----------------------------|
E:------------------------------|----------------------------|
                                                      grad.bend


e:----------------------|--------------------------|
B:~~~~~~~~rb(9)-----7h9-|--------------------------|
G:~~~~~~~~rb(9)-----7h9-|--------------------------|
D:----------------------|--------------------------|
A:----------------------|--------------------------|
E:----------------------|--------------------------|

  3rd Chorus w/chords from chorus

e:----------------------------|
B:-------------------------19-|
G:------16------16~~~---------|
D:--19------19---------19-----|
A:----------------------------|
E:----------------------------|




e:-----------------------------------------------|---------------------------|
B:-(19)------------------------------------------|---------------------------|
G:-----------16~~~--18b(19)rb(18)p16-------16~~~~~~------16------16----------|
D:-------19---------------------------19---------|---19------19------19~~~~--|
A:-----------------------------------------------|---------------------------|
E:-----------------------------------------------|---------------------------|

e:------|---------------------------------------|
B:--19--|-(19)------19h20p19p17-----------------|
G:------|------------------------19b(21)rb(19)--|
D:------|---------------------------------------|
A:------|---------------------------------------|
E:------|---------------------------------------|

e:------------------------------------|
B:--------------------------------19--|
G:-(19)------16------16---------------|
D:-------19------19------19-----------|
A:------------------------------------|
E:------------------------------------|

e:--------------------------------------------|--------------------------|
B:-(19)---------------------------------------|--------------------------|
G:--------16--19b(21)rb(19)p16----------------|--------------------------|
D:------------------------------19---19b(21)~~|~~~~~~~~~~~~~~rb(19)----7-|
A:--------------------------------------------|--------------------------|
E:--------------------------------------------|--------------------------|

e:-----------------------|---------|---------|---------|-|
B:-----------------------|---------|---------|---------|-|
G:-----------------------|---------|---------|---------|-|
D:--9--7-----------------|---------|---------|---------|-|
A:--------9\7--5--7p(9)--|---(7)---|---(7)---|---(7)---|-|
E:-----------------------|---------|---------|---------|-|
                  grad. bend

7.I STAY AWAY

INTRO/VERSE - Guitar 1, positions relative to capo on 5th fret


    D              D7sus4  Gsus4  G      D
  ------0----------3-----------------------------------------------|
  --0h2---0-----0--3-----------3------3----------------------------|
  --2-----2-----2--2---------2------2----------2--------2----------|
  --2--------2-----2-------5------4------0h(2)----0h(2)------------|
  --0--------0---------------------------------------------5p4--0--|
  -----------------------------------------------------------------|

PRE-CHORUS - Guitar 2, chord notes implied by vocals & bass


  Why you act crazy
  Not an act maybe
  etc.

        D                             F
  ----------------------------------------------------------|
  ----------------------------------------------------------|
  ----------------------------------------------------------|
  ------5h6p5p3---------------------------------------------|
  ---------------5h6p5p3------------------------------------|
  ------------------------5h6p5p3(...)b5(...)r3~~-----------|
  Count 1        &        2           3      4

        E                             D#
  ----------------------------------------------------------|
  ----------------------------------------------------------|
  ----------------------------------------------------------|
  ------5h6p5p3---------------------------------------------|
  ---------------5h6p5p3------------------------------------|
  ------------------------5h6p5p3(...)b5(...)r3~~-----------|
        1        &        2           3      4

CHORUS/OUTRO - Guitar 2


  I stay away

  ----------------------------------------------------------|
  --3-------------------------------------------------------|
  --2-------------------------------------------------------|
  --0--------8--------8---10---12---------------------------|
  --0--------8--------8---10---12---------------------------|
  --0--------8--------8---10---12---------------------------|

SOLO - Guitar 3, enters with short ascending run on the end of
       chorus

  ----------------------------------------------------------|
  ----------------------------------------------------------|
  -----------------------------5---5----7b9~~----r7--5---5--|
  -----------2--3--5---5/7~~-----7---------------------7----|
  --1--3--5-------------------------------------------------|
  ----------------------------------------------------------|


  ----------------------------------------------------------|
  ----------------------------------------------------------|
  --5-------------------------------------------------------|
  -----7--6--5--5--5b6----5---------------------------------|
  ---------------------------8--5---3h5p3h5p3h5p3h5---x-x---|
  ----------------------------------------------------------|
    _____________P.H.____________

  ----------------------------------------------------------|
  ----------------------------------------------------------|
  ----------------------------------------------------------|
  ---/5--3p0h3---------------------5b6---r5-----------------|
  --------------5p3p0---------------------------------------|
  ---------------------5p3h5---3~---------------------------|


  ----------------------------------------------------------|
  ----------------------------------------------------------|
  ----------------------------------------5--7--------------|
  ---5--5--5--5--3----------------3--5/7--------------------|
  ------------------5----5--3--5----------------------------|
  ----------------------------------------------------------|
     ______P.H.______

  ----------------------------------------------------------|
  ----------------------------------------------------------|
  --------10----------10-----12b14--12b14r12--10----10------|
  ---/12-----12-12-12----12----------------------12----12\--|
  ----------------------------------------------------------|
  ----------------------------------------------------------|

Date: Sat, 4 Nov 95 10:04:24 MST
From: al457@rgfn.epcc.Edu (Al G. Bendorf)
Subject: i stay away by Aics


    this is i stay away THE RIGHT WAY by alice in chains.  You start off
with a D chord, C,then into this riff,1:
1:             3
2:
3:    0     0
4:  0     0    0                     X?
5:3     2      2
6:             3  3  3 3 2 0
    The post chorus is 4 power chords D, F, E, and D#
Chorus is
1:0  0  0
2:3  3  3
3:2  2  2
4:              8   8  10  12
5:              8   8  10  12
6:              6   6  8   10
Sorry, i'm still working on the solo


    this home-made tab is by ADAM BENDORF alias THE DUDE on compuserve
alias SEYMOUR BUTTS alias KICK-HAPPY.

Date: Mon, 29 Jul 1996 23:16:15 -0700
From: "Denis L. Davis"
Subject: TAB:  "I STAY AWAY" BY ALICE IN CHAINS


How to play I Stay Away the right way.  First tune your guitar down (Db,
Ab, Db, Gb, Bb, Eb)

()=hammer-on or pull-off
b=bend
e-------2--0-------0----------]-----------------------------------]
b-3-----3--3-------3----------]-----------------------------------]
g-0-(2)-2--2-0-----0----------]------0------0---------------------]
d-0-------------0--2----------]----0------0-------0-----0---------]
a-0----------------3----------]--3------2-------0-----0-----------]
e-0---------------------------]---------------5-----5-----5-4-0---]


Pre-Chorus:

e--------------------------------------------------------------|
b--------------------------------------------------------------|
g--------------------------------------------------------------|
d-5b-5-3-(5)-(3)-(0)---0-----------------------5b--5(3)--------|
a--------------------3---3-(0)---------------------------------|
e------------------------------5-3b----3b-3--------------------|

e--------------------------]
b--------------------------]
g--------------------------]
d--------------------------]
a-0-(3)-(5)--3-(0)---------]
e------------------3b---3--]

8.GRIND

verse riff/intro     fill 1          fill 2
   E5  F#5/G  Cadd9
e|------------3--|-----------------|-----------------|
B|------------3--|--15p12----------|--15p12----------|
G|------------5--|-------14--------|-------12--------|
D|--2-2--4/5-----|---------12~~~~--|---------11~~~~--|
A|--2-2--4/x-----|-----------------|-----------------|
E|--0-0--2/3-----|-----------------|-----------------|

   1st variation   2nd variation
    E5   F#5/G      E5 F#5/G  D
e|---------------|---------------|
B|------------0--|------------7--|
G|------------0--|------------7--|
D|--2-2--4/5--0--|--2-2--4/5--7--|
A|--2-2--4/x-----|--2-2--4/5--5--|
E|--0-0--2/3-----|--0-0--2/3-----|

[ every once in a while, change the verse riff with one of the       ]
[ variations. a second (lead) guitar plays the fills over the riffs. ]

*chorus "let the sun..."

 -rhythm guitar -lead guitar
e|-------------|-------------|
B|-------------|--4b-2-------|
G|--8--6--4-3--|--------4-3--|
D|--8--6--4-3--|-------------|
A|--6--4--2-1--|-------------|
E|-------------|-------------|

[ there's also a transition period between the chorus rhythm  ]
[ and the restarting of the verse riff, that's just an E5/F#5 ]
[ slide, and held out, nothing special.                       ]

9.HEAVEN BESIDE YOU

tune down a 1/2 step

intro riff

*=means to bend up a whole step
e-------------------------------------------|
b-------------------------------------------|
g-------------------------------------------|
d---------5*-----------0----------------0---|
a-------------7-----7-----7---------5-------|
E---0------------5-----------5---3----------|

i didn't include the strumming pattern, you'll have to do that yourself.
   a  g  c  b
e--0--3--0--2---|
b--2--3--1--0---|
g--2--0--0--2---|
d--2--0--2--1---|
a--0--2--3--2---|
E-----3---------|

note- electric strums, acoustic picks the strings
e-----------------------|
b-----------------------|
g--0-0--0-0--0-0--0-0---|
d--1-1--2-2--3-3--4-4---|
a--3-3--4-4--5-5--6-6---|
e-----------------------|

!=means to palm mute
e-------------------------------|
b-------------------------------|
g--0----------------------------|
d--2--2------------0!-------0!--|
a--2-----2------2!--------1!----|
e--0----------3!-------2!-------|

write me with any questions at engdm@ix.netcom.com


From: cwhela19@pop3.nfi.com (cwhelan)
Subject: TAB: Heaven Beside You by Alice in Chains


I found a mistake recently in the lead of this song.....this is what it
should be:


e  -----------------------------|
b  -----------------------------|
g  -----------------------------|
d  -----------------------------|
a  -----10b--7--0--7--0---------|
E  --0-------------------5/3----|

If you want more, questions, or comments-e-mail me.....

Matt Whelan
cwhela19@nfi.com


Date: Sat, 30 Nov 1996 11:07:36 -0800
From: Denis Davis
Subject: TAB:

Here's how to play Heaven Beside You by Alice in Chains.  Fist tune down
1/2 step.  Transcribed by Dave Whitehill.

b=bend
h=hammer on
p=pull off
*=hold bend
/ or =slide


1-----------------------------|
2-----------------------------|
3-----------------------------|
4----5b--5-------0---------0--|
5----------7---7---7-----5----|
6--0---------5-------53-------|

Heres the lead intro

1-----------------------------------------------------------|
2--3h5--3---------------------------------------------------|
3---------0-2b-2^-2b-2b-2-0---------------------------------|
4----------------------------2-------2--0--0h2p0------------|
5------------------------------------------------2----------|
6------------------------------0--3b---------------3-0-3-0--|

1---------------------------------------109--7--7/9---|
2--12--14b-14--------12-------------------------------|
3--12--14b-14h12-----12-----------------109--7--7/9---|
4----------------14-----------------------------------|
5-----------------------------------------------------|
6-----------------------------------------------------|

1--9--109--7/9--9--109--7--7/9--9-----------------------------|
2-------------------------------------14b--14------14b--14----|
3--9--109--7/9--9--109--7--7/9--9---14b--14------14b--14------|
4-------------------------------------------------------------|
5-------------------------------------------------------------|
6-------------------------------------------------------------|

chorus

   A       G        C         B
E-5      E-3      E-8       E-7-|
B-5      B-3      B-8       B-7-|
G-6      G-4      G-9       G-8-|
D-7      D-5      D-10      D-9-|
A-7      A-5      A-10      A-9-|
E-5      E-3      E-8       E-7-|

bridge

1------------------------------------------------------------------|
2------------------------------------------------------------------|
3------0-------0-----0-------0-------0-------0-------0-------0-----|
4------5-------5-----5-------5-------5-------5-------5-------5-----|
5--3-3---3-3-3---3-4---4-4-4---4-6-6---6-6-6---6-6-6---6-6-6---6---|
6--4-4---4-4-4---4-5---5-5-5---5-5-5---5-7-7---7-7-7---7-7-7---7---|

1-------------------------|
2-------------------------|
3-------------------------|
4----2----------0-----0---|
5------1b-1---2-----1---1-|
6--0--------3-----2-------|

Outro

1----0-------0-----0-----0-------0------0--------------|
2------0-------------------0-------0-------------------|
3--------14b---14b---14b-----14b-----14---12-----------|
4------------------------------------------------------|
5------------------------------------------------------|
6--0---------------------------------------------------|

From: "Steven"
Subject: a/alice_in_chains/heaven_beside_you.tab
Date: Sat, 28 Mar 1998 17:40:46 -0800

"Heaven Beside you" by ALICE IN CHAINS
from the album "Alice in Chains" aka the "Dog Album"
Transcribed by Matt Wilson (jackel20@prodigy.net).

I noticed that nobody had the solo included in their transcriptions,
so here it is:
--------------------------------------------------------------------------
                                                      full bend
e|-----------------|-----------------------------------|
B|-----------------|-----------------------------------|
G|-----------------|-------------12h14p12-12~~~~~---14^|
D|-----------------|-------12h14-----------------------|
A|-----------------|-13h14-----------------------------|
E|-0---------------|-----------------------------------|
  gradual
  release
e|---------------------|-------------------------------|
B|-------------15------|---------------------14--12~~~-|
G|^^^^^^^14--------14~~~~~~~~~------------14-14--12~~~-|
D|---------------------|------------12h14-14-----------|
A|---------------------|------12h14--------------------|
E|---------------------|-------------------------------|

						Hold bend and strike

				              1 bend......release
e|----------------------------|-----------------|------------------------|
B|~~-15^r(15)^^^^^r(15)-------|--------------5--|--5--5--5--5------------|
G|~~-----------------------12~~~~~~~~~~(12)-7^----7--7--7--7-r(7)--------|
D|----------------------14----|-----------------|--------------------5~~-|
A|----------------------------|-----------------|-----------------7------|
E|----------------------------|-----------------|------------------------|

	        1/2				  1/2 bend
e|-------------------|------0---------0------0------|
B|------------12-----|(12)-----0--------------------|
G|--------14--14^^^^^|(14)--------15-----15-----15^^|
D|~~-/14-------------|------------------------------|
A|-------------------|------------------------------|
E|-------------------|------------------------------|

						     1/2 bend
e|--0---------0------0------|--0---------0------0--------|
B|-----0--------------------|-----0----------------------|
G|^^------15-----15-----12~~~~~------15-----15-----15^---|
D|--------------------------|----------------------------|
A|--------------------------|----------------------------|
E|--------------------------|----------------------------|

						    1/2 bend
e|--0---------0------0------|--0---------0------0--------|
B|-----0--------------------|-----0----------------------|
G|^^------15-----15-----12~~~~-------15-----15-----15^---|
D|--------------------------|----------------------------|
A|--------------------------|----------------------------|
E|--------------------------|----------------------------|


e|--0---------0------0------|--0---------0------0-------|
B|-----0--------------------|-----0----------------12/15|
G|^^------15-----15-----12~~~~~------15-----15----------|
D|--------------------------|---------------------------|
A|--------------------------|---------------------------|
E|--------------------------|---------------------------|

					"Like   the     cold - est..."
e|-----0---------0-----0----|--0-----------------------|
B|-15-----14----13----12----|-10-----------------------|
G|--------------------------|--------------------------|
D|--------------------------|--------------------------|
A|--------------------------|--------------------------|
E|--------------------------|--------------------------|

10.AGAIN

Intro/verse - palm mute

eb|------------------------------------------|
bb|------------------------------------------|
gb|-------6------------/7--------------------|
db|-------6------------/7--------------------|
ab|-6-6-6----6-6-6-6-6-----5-5-5-5-5-5-5-----|
eb|-4-4-4----4-4-4-4-4-----3-3-3-3-3-3-3-----|

Chorus - the guitar in the chorus can be rather
         difficult to pick up so listen carefully

eb|-------------------------------|
bb|-------------------------------|
gb|-------------------------------|
db|-------------------------------|
ab|-------4-----4h5p4-------------|
eb|-4--4--4--4--------4/3v--------|

Bridge thing - it may be funner to had in a few
               more mutes

eb|-------------------------|
bb|-------------------------|
gb|----6----(x)-----5/7-----|
db|-6--6-----x---5--5/7-----|
ab|-6--6--6--x---5--5-------|
eb|-4--4--4--x---3--3-------|

Solo (bridge) -
eb|-----------------------------------|
bb|-7b--(9)-(9)-(9)-(9)--(9)r7v-------|
gb|------------------------------6brv-|
db|-----------------------------------|
ab|-----------------------------------|
eb|-----------------------------------|

Solo bridge ending -

    fill. I   fill.II
eb|-6-9br----|---6---|
bb|----------|---6---|
gb|----------|-------|
db|----------|-------|
ab|----------|-------|
eb|----------|-------|
Suggest correction
What's this?
You can suggest a correction to this tab. Community and Mods will review your correction and vote to approve or reject it.
comments
print report bad tab
5 comments total. Showing first comments.
0 reply
Igg lockwood 20 wrote on February 25 2006, 04:20 pm

jerry cantrell plays tuned half step down GOD!!

0 reply
595Metallica595 143 wrote on April 27 2006, 05:36 pm

must have taken FOREVER!!!!!!!!!!!!!!!!! good job

0 reply
metica 30 wrote on August 23 2006, 09:50 pm

is ok man, i dont get most of it. i got some research to do but those songs rule. good job!!

guest
You may want to rate the tab now too:
select rating
Please do not post tabs as comments. Select "correction" instead!