Oops, an error
Loading. Please wait.

Grind Bass Tab

version 2
version 2

Whole song

Interactive

2,074 views 1 this week
no commentswrite comment
1 2 3 4 5
2 more votes to show rating
add to favorites
launch autoscroll
font size
0
reset
guitar tuner
Autoscroll
slow
fast
+/-
esc
set tempo
stop
Help us to improve Ultimate-Guitar.com Take our survey!
×
Author
Difficulty
novice
tuning:  Db Ab Db Gb

intro
|-------------------------|
|-------------------------|
|-------------------------|
|--3-3---3-3---3-3---3-3--| x4

|---------------------------------|
|---------------------------------|
|---------------------------------|
|--3-3/0---3-3/0---3-3/0---3-3/0--| x2

verse 1
|-------------------------|
|-------------------------|
|-------------------------|
|--3-3---3-3---3-3---3-3--| x2

|---------------------------------|
|---------------------------------|
|---------------------------------|
|--3-3/0---3-3/0---3-3/0---3-3/0--| x2

verse 2
|-------------------------|
|-------------------------|
|-------------------------|
|--3-3---3-3---3-3---3-3--| x2

|---------------------------------|
|---------------------------------|
|---------------------------------|
|--3-3/0---3-3/0---3-3/0---3-3/0--| x2

chorus
|-------------------------------------|
|-------------------------------------|
|--3----------------------------------|
|-----5---5---5--5-5-5-5-5-5-5-5-5-5--| 

|------------------------------------|
|------------------------------------|
|-----3-------------------------0----|
|--5------5---5-5-5-5-5-5-5-3-5---3--| 

|-------------------------------------|
|-------------------------------------|
|--3----------------------------------|
|-----5---5---5--5-5-5-5-5-5-5-5-5-5--| 

|-------------------------------|
|-------------------------------|
|-----3-------------------------|
|--5------5---5-5-5-5-5-5-5-3^--| 3/4 bend up, then bend down

bridge/verse 3
|-------------------------|
|-------------------------|
|-------------------------|
|--3-3---3-3---3-3---3-3--| x4

|---------------------------------|
|---------------------------------|
|---------------------------------|
|--3-3/0---3-3/0---3-3/0---3-3/0--| x2

verse 4
|-------------------------|
|-------------------------|
|-------------------------|
|--3-3---3-3---3-3---3-3--| x2

|---------------------------------|
|---------------------------------|
|---------------------------------|
|--3-3/0---3-3/0---3-3/0---3-3/0--| x2

chorus
|-------------------------------------|
|-------------------------------------|
|--3----------------------------------|
|-----5---5---5--5-5-5-5-5-5-5-5-5-5--| 

|------------------------------------|
|------------------------------------|
|-----3-------------------------0----|
|--5------5---5-5-5-5-5-5-5-3-5---3--| 


|-------------------------------------|
|-------------------------------------|
|--3----------------------------------|
|-----5---5---5--5-5-5-5-5-5-5-5-5-5--| 

|------------------------------------|
|------------------------------------|
|-----3-------------------------0----|
|--5------5---5-5-5-5-5-5-5-3-5---3--| 

guitar solo
|-------------------------------------|
|-------------------------------------|
|--3----------------------------------|
|-----5---5---5--5-5-5-5-5-5-5-5-5-5--| 

|------------------------------------|
|------------------------------------|
|-----3-------------------------0----|
|--5------5---5-5-5-5-5-5-5-3-5---3--| 

|-------------------------------------|
|-------------------------------------|
|--3----------------------------------|
|-----5---5---5--5-5-5-5-5-5-5-5-5-5--|

|-------------------------------|
|-------------------------------|
|-----3-------------------------|
|--5------5---5-5-5-5-5-5-5-3^--| 3/4 bend up, then bend down

bridge verse 5
|-------------------------|
|-------------------------|
|-------------------------|
|--3-3---3-3---3-3---3-3--| x4

|---------------------------------|
|---------------------------------|
|---------------------------------|
|--3-3/0---3-3/0---3-3/0---3-3/0--| x2

chorus 
|-------------------------------------|
|-------------------------------------|
|--3----------------------------------|
|-----5---5---5--5-5-5-5-5-5-5-5-5-5--| 

|------------------------------------|
|------------------------------------|
|-----3-------------------------0----|
|--5------5---5-5-5-5-5-5-5-3-5---3--| 


|-------------------------------------|
|-------------------------------------|
|--3----------------------------------|
|-----5---5---5--5-5-5-5-5-5-5-5-5-5--| 

|------------------------------------|
|------------------------------------|
|-----3-------------------------0----|
|--5------5---5-5-5-5-5-5-5-3-5---3--| 

chorus
|-------------------------------------|
|-------------------------------------|
|--3----------------------------------|
|-----5---5---5--5-5-5-5-5-5-5-5-5-5--| 

|------------------------------------|
|------------------------------------|
|-----3-------------------------0----|
|--5------5---5-5-5-5-5-5-5-3-5---3--| 

|-------------------------------------|
|-------------------------------------|
|--3----------------------------------|
|-----5---5---5--5-5-5-5-5-5-5-5-5-5--| 

|-------------------------------|
|-------------------------------|
|-----3-------------------------|
|--5------5---5-5-5-5-5-5-5-3^--| 3/4 bend up, then bend down

|-------------------------|
|-------------------------|
|-------------------------|
|--3-3---3-3---3-3---3-3--| x2
Suggest correction
Give kudos to tab author, rate the tab!
1 2 3 4 5
comments
print report bad tab
guest
You may want to rate the tab now too:
select rating
Wanna post a correction for this tab? Suggest correction