Oops, an error
Loading. Please wait.

Hate To Feel Bass Tab

version 2
version 2

Whole song

Interactive

1,931 views 1 this week
1 commentread comment
1 2 3 4 5
please rate
add to favorites
launch autoscroll
font size
0
reset
guitar tuner
Autoscroll
slow
fast
+/-
esc
set tempo
stop
Help us to improve Ultimate-Guitar.com Take our survey!
×
Author
Tuning
D# G# C# F# A# D#
-------------------------------------------------------------------------------
			     Hate to Feel – Alice in Chains
-------------------------------------------------------------------------------
Bass
Tuning: Eb Ab Db Gb

Verse
G|--------------------------------------------------------------------------|
D|--------------------------------------------------------------------------|
A|--7-76-6------------------------------------------------------------------|
E|----------7-76-6----------------------------------------------------------|

Pre-Chorus (Riff One)
(Play with rhythm of the “What the…” part)
G|--------------------------------------------------------------------------|
D|--------------------------------------------------------------------------|
A|--------------------------------------------------------------------------|
E|--0-0-6-------------------------------------------------------------------|

Pre-Chorus (Riff Two)
(Play with rhythm of the “Plastic Man…” part)
G|--------------------------------------------------------------------------|
D|--------------------------------------------------------------------------|
A|--------------------------------------------------------------------------|
E|--0-0-6--0-0-6xx--0-0-6--0-0-6-/12\--0-0-6--0-0-6--0-0-6--0-0-6-----------|

(Play with rhythm of the “All this time I’ve…” part)
G|--------------------------------------------------------------------------|
D|--------------------------------------------------------------------------|
A|------------------2-2-2-2-2-0~------------------2-2-2-2-2-0~--------------|
E|--0-0-0-0--1-1-1----------------0-0-0-0--1-1-1----------------------------|

(Play with rhythm of the “Wish I couldn’t feel at all” part)
G|--------------------------------------------------------------------------|
D|--------------------------------------------------------------------------|
A|-------------13-------------13--------------------------------------------|
E|--0-0-00-0-0-----0-0-00-0-0-----------------------------------------------|

EPIC Ending
G|--13----13-----13-----13-----13-13-13-------------------------------------|
D|--13----13-----13-----13-----13-13-13-------------------------------------|
A|--13----13-----13-----13-----13-13-13 ect…--------------------------------|
E|-----0------0------0------0-----------------------------------------------|
Suggest correction
Give kudos to tab author, rate the tab!
1 2 3 4 5
comments
print report bad tab
1 comment total.
0 reply
cdiaz1998 52 wrote on August 31 2010, 11:17 pm

you can see my cover at http://www.youtube.com/watch?v=kMAMe_ZIccw

guest
You may want to rate the tab now too:
select rating
Wanna post a correction for this tab? Suggest correction