Oops, an error
Loading. Please wait.

Head Creeps Bass Tab

1,151 views 3 this week
no commentswrite comment
1 2 3 4 5
please rate
add to favorites
launch autoscroll
font size
0
reset
guitar tuner
Autoscroll
slow
fast
+/-
esc
set tempo
stop
Help us to improve Ultimate-Guitar.com Take our survey!
×
Author
Song: Head Creeps

Artist: Alice In Chains

Album : Alice In Chains



Tuning: 1/2 step down (Eb, Ab, Db, Gb)

Tempo: 102 bpm ( one '-' = 32nd note)



Riff A:
|----------------|----------------|
|----------------|----------------|
|----------------|----------------|
|0-0-0-0-0---0-0-|----------------|



Riff B:
|----------------|----------------|----------------|----------------|
|----------------|----------------|----------------|----------------|
|----------------|----------------|----------------|----------------|
|0-0-0-0-0---0-0-|----------------|0-0-0-0-0---0-0-|----------------|

|----------------|----------------|----------------|----------------|
|----------------|----------------|----------------|----------------|
|----------------|----------------|----------------|----------------|
|0-0-0-0-0---0-0-|----------------|0-0-0-0-0---0-0-|--0-0-0-1-------|



Riff C:
|----------------|----------------|----------------|----------------|
|----------------|----------------|------------7^--|--7^----7-5-----|
|----------------|----------------|5---5-5-7-5-----|------------5---|
|0-----0-0-0-0---|----0-0-0---0-0-|----------------|----------------|

|----------------|----------------|----------------|----------------|
|----------------|----------------|----------------|----------------|
|----------------|----------------|5---5-5-7-5-----|----------------|
|0-----0-0-0-0---|----0-0-0---0-0-|------------6---|------6-6-6-7---|

Fill:
|-----------------------|
|-----------------------|
|-----------------------|
|8-----7-----3----3-2-0-|

Riff D:
|----------------|----------------|----------------|----------------|
|----------------|----------------|----------------|----------------|
|----------------|----------------|----------------|----------------|
|0-----0-----0---|5-----5-5-5-56--|0-----0-----0---|3-3-3-0-2-2-2-0-|

Riff E:
|----------------|----------------|----------------|----------------|
|----------------|----------------|----------------|----------------|
|----57-----57---|----57-----57---|----57--7--57---|----57-----57---|
|0--0--0---0-----|0--0--0---0-----|0--0--0--00-----|0--0--0---0-----|

Riff F: (Change to triplets, play slower and slower)
|------------|
|------------|
|------------|
|0--0--0--0--|


Order:

Riff A x 4
Riff B x 4
Riff C x 1
Riff B x 3
Riff C x 2
Fill x 1
Riff D x 2
Riff B x 4
Riff C x 2
Fill x 1
Riff D x 2
Riff E x 1
Riff A x 16
Riff F x 16
Suggest correction
Give kudos to tab author, rate the tab!
1 2 3 4 5
comments
print report bad tab
guest
You may want to rate the tab now too:
select rating
Wanna post a correction for this tab? Suggest correction