Oops, an error
Loading. Please wait.

Head Creeps Tab

version 3
version 3

Whole song

3,053 views 15 this week
no commentswrite comment
1 2 3 4 5
please rate
add to favorites
launch autoscroll
font size
0
reset
how to read this tab
guitar tuner
Autoscroll
slow
fast
+/-
esc
set tempo
stop
Help us to improve Ultimate-Guitar.com Take our survey!
×
Author
Tuning
D# G# C# F# A# D#
-------------------------------------------------------------------------------
                             HEAD CREEPS - Alice in Chains
-------------------------------------------------------------------------------
Tabbed by: Steve Dubuque
Email: sdubuque_vp@hotmail.com

Tuning: Eb Ab Db Gb Bb Eb (Half-Step down)


(0:00-0:08)

e|---------------------------------------------------------------------------|
B|---------------------------------------------------------------------------|
G|---------------------------------------------------------------------------|
D|---------------------------------------------------------------------------|
A|--2~~~--------------------------------2~~~---------------------------------|
E|--0~~~--------------------------------0~~~---------------------------------|

(0:09-0:28; two guitars)

Guitar 1

e|----------------------I----------------------------------------------------|
B|----------------------I--fourth time, do this------------------------------|
G|-------------------X3-I----------------------------------------------------|
D|----------------------I-----------------------3----------------------------|
A|--2-2-2-2-2--2-2------I--2-2-2-2-2--2-2-------3----------------------------|
E|--0-0-0-0-0--0-0------I--0-0-0-0-0--0-0--0-0--1----------------------------|

Guitar 2

e|---------------------------------------------------------------------------|
B|-8~----------------7~----------------------12~-----------------------------|
G|-9~----------------8~----------------------12~-----------------------------|
D|---------------------------------------------------------------------------|
A|---------------------------------------------------------------------------|
E|---------------------------------------------------------------------------|

(0:29-0:047)
e|-------------------------------------I-------------------------------------|
B|-------------------------------------I-fourth time, do this----------------|
G|----------------------------------X3-I-------------------------------------|
D|-------------------------------------I--------------------3----------------|
A|--2--2-------2-----------------------I-2--2-------2-------3----------------|
E|--0--0--0-0--0---0--5b6r5b6r5b6------I-0--0--0-0--0--0-0--1----------------|


(0:48-1:06)
e|---------------------------------------------------------------------------|
B|---------------------------------------------------------------------------|
G|------------------------------2--------2b3-2b3-2p0-------------------------|
D|------------------------------0--0-2p0--------------1~---------------------|
A|-2--2-----2--2------2-2----------------------------------------------------|
E|-0--0-0-0-0--0--0-0-0-0--0-0-----------------------------------------------|


e|---------------------------------------------------------------------------|
B|---------------------------------------------------------------------------|
G|------------------------------2--------------------------------------------|
D|------------------------------0--0-2p0-------------------------------------|
A|-2--2-----2--2------2-2-----------------1~--1--1b2-------------------------|
E|-0--0-0-0-0--0--0-0-0-0--0-0-----------------------------------------------|



(2:04-2:07)
e|---------------------0~----------------------------------------------------|
B|---------------------8~----------------------------------------------------|
G|-5---4---------------7~----------------------------------------------------|
D|-5---4---5---4-2-----8~----------------------------------------------------|
A|-3---2---5---4-2-----7~----------------------------------------------------|
E|-3---2---3---2-0--0--------------------------------------------------------|


(2:08-2:25)
e|--------------------------0~---------------------------0~------------------|
B|--------------------------8~---------------------------8~------------------|
G|--------------------------7~---------------------------7~------------------|
D|-8-8-8-8-8-8---9----------8~--2-2-2--1-1--0-0-x--------8~------------------|
A|-7-7-7-7-7-7---9---2-2----7~--2-2-2--1-1--0-0-x-2-2----7~------------------|
E|-6-6-6-6-6-6-x-7---0-0--0-----3-3-3--2-2--1-1-x-0-0--0---------------------|


e|--------------------------0~--12-------11-------10-------------------------|
B|--------------------------8~-----12-------11-------10----------------------|
G|--------------------------7~--------12-------11----------------------------|
D|-8-8-8-8-8-8---9----------8~-----------------------------------------------|
A|-7-7-7-7-7-7---9---2-2----7~-----------------------------------------------|
E|-6-6-6-6-6-6-x-7---0-0--0--------------------------------------------------|


(4:03-4:23)

e|---------------------------------------------------------------------------|
B|--9----9/10---10\9----9\7--------------------------------------------------|
G|--9----9/10---10\9----9\7--------------------------------------------------|
D|--9----9/10---10\9----9\7--------------------------------------------------|
A|--7----7/8----8-\7----7\5--------------------------------------------------|
E|--0------------------------------------------------------------------------|

(lead riff starting at 5:19; with octave effect)

e|---------------0-----------------------------------------------------------|
B|-0-3-0-3-0-4-0-------------------------------------------------------------|
G|---------------------------------------------------------------------------|
D|---------------------------------------------------------------------------|
A|---------------------------------------------------------------------------|
E|---------------------------------------------------------------------------|


| /  slide up
| \  slide down
| h  hammer-on
| b  bend
| p  pull-off
| ~  vibrato
| +  harmonic
| x  Mute note

===============================================================================
Suggest correction
Give kudos to tab author, rate the tab!
1 2 3 4 5
comments
print report bad tab
guest
You may want to rate the tab now too:
select rating
Wanna post a correction for this tab? Suggest correction