Oops, an error
Loading. Please wait.

Heaven Beside You Acoustic Tab

version 1
version 1

Whole song

Interactive

89,083 views 168 this week
10 commentsread comments
1 2 3 4 5
excellent!
x 23
add to favorites
launch autoscroll
font size
0
reset
how to read this tab
guitar tuner
Tab Pro tools
  • play this tab
  • loop segment
  • change instrument
  • show fretboard
  • metronome
Autoscroll
slow
fast
+/-
esc
set tempo
stop
Contributor
Difficulty
intermediate
----------------------------------------------------------------------------
                 Heaven Beside You (acoustic)- Alice in Chains
----------------------------------------------------------------------------
Tabbed by: Brack
Tuning: Down a 1/2 a step
e-------------------------------------------|
b-------------------------------------------|
g-------------------------------------------|
d---------5b-----------0----------------0---|
a-------------7-----7-----7---------5-------|
E---0------------5-----------5---3----------|

Gtr 2
e|-9--10-7/9--9-10/9--7/9---9-10/9-7/9---9-10/9/7---------------------------|
B|-X--X--X/---X--X----X-----X--X---X-----X--X-------------------------------|
G|-9--10-7/9--9-10/9--7/9---9-10/9-7/9---9-10/9/7---------------------------|
D|--------------------------------------------------------------------------|
A|--------------------------------------------------------------------------|
E|--------------------------------------------------------------------------|
Gtr 2 continued....
e|---10b----------------------10b-------------------------------------------|
B|---10b----------------------10b-------------------------------------------|
G|--------------------------------------------------------------------------|
D|-------------0---------0-------------0---------0--------------------------|
A|--------0--7---7-----5-----------0-7---7-----5----------------------------|
E|-0---------------5-3------0--------------5-3------------------------------|


Chorus
       Aadd9          G6             Badd11         Cmaj7          Aadd9
e--0--0--0--0--0--0--0--0--0--0--0--0--0--0--0--0--0--0--0--0--0--0--0--|
B--0--0--0--0--0--0--0--0--0--0--0--0--0--0--0--0--0--0--0--0--0--0--0--|
G--6--6--6--6--6--4--4--4--4--4--9--9--9--9--9--8--8--8--8--8--6--6--6--|
D--7--7--7--7--7--5--5--5--5--5-10-10-10-10-10--9--9--9--9--9--7--7--7--|
A--7--7--7--7--7--5--5--5--5--5-10-10-10-10-10--9--9--9--9--9--7--7--7--|
E--5--5--5--5--5--3--3--3--3--3--8--8--8--8--8--7--7--7--7--7--5--5--5--|

Bridge
e|--------------------------------------------------------------------------|
B|--------------------------------------------------------------------------|
G|-----0-------0-------0-------0-------0-------0--------0--------0----------|
D|--------------------------------------------------------------------------|
A|---3---3---3---3---4---4---4---4---5---5---5---5----6---6----6---6--------|
E|-4-------4-------5-------5-------6-------6--------7--------7--------------|

Interlude
e|-0---------------------------------0--------------------------------------|
B|-0-------------------------------0-0--------------------------------------|
G|-0------------------------------0-0---------------------------------------|
D|-2-------------------0------0--2-2-2-----------------0-----0--------------|
A|-2----7------------2------1----2-2-2----7----------2-----1----------------|
E|-0--0-----0--5b--3------2------0-0-0--0----0--5b-3-----2------------------|

Guitar Solo

e|----------------------------------------------------------------------------|
B|----------------------------------------------15-15v-12-15-12----12---------|
G|----14v--12-14-12----12----------12-14b-14-12-----------------14----14b14b--|
D|------------------14----14-12-14--------------------------------------------|
A|----------------------------------------------------------------------------|
E|-0--------------------------------------------------------------------------|

e|---------------------------------------0------------------0----------------|
B|-----------------------------------------0------------------0--------------|
G|--(14)p12----12----------------------------15----15----15-----15----15--15-|
D|----------14----14-12-14----------------------14----14-----------14---14---|
A|-------------------------12-10-10-10---------------------------------------|
E|---------------------------------------------------------------------------|

e|-------0------------0----------------------------------0------------------|
B|---------0------------0------------------------0---------0-------0--------|
G|-12--------15-15--------15----15----12----15--------15-----15---------12--|
D|----14-----------14--------14----14----14--------14-----------14---14-----|
A|---------------------------------------------0----------------------------|
E|--------------------------------------------------------------------------|

e|-0------------------0----------------0------------------0-----------------|
B|---0-------0----------0------0---------0------------------0---------------|
G|-----15----------12-----15--------12-----15----15----15-----15----15---12-|
D|--------14----14----------14---14-----------14----14-----------14----14---|
A|--------------------------------------------------------------------------|
E|--------------------------------------------------------------------------|
comments
print report bad tab
10 comments total. Showing first comments.
0 reply
Bracky wrote on July 24 2006, 02:40 pm

Excellent tab!

0 reply
Entropy wrote on January 11 2007, 04:56 pm

Perfect

0 reply
tHE_ pEOpLE_13 wrote on January 25 2007, 10:26 pm

noice job man

I want to post or [tab]
guest
You may want to rate the tab now too:
select rating
Please do not post tabs as comments. Select "correction" instead!