Oops, an error
Loading. Please wait.

Hollow Tab

version 1
version 1

Whole song

Interactive

28,894 views 51 this week
7 commentsread comments
1 2 3 4 5
excellent!
x 26
add to favorites
launch autoscroll
font size
0
reset
how to read this tab
guitar tuner
Tab Pro tools
  • play this tab
  • loop segment
  • change instrument
  • show fretboard
  • metronome
Autoscroll
slow
fast
+/-
esc
set tempo
stop
Contributor
HOLLOW

Alice in Chains 

Tabbed by:Brownbear93

Tuning: Db Ab Db Gb Bb Eb

Cool new Alice tune. Cantrell never manages to disappoint.

Update: Thanks METALdementia for the correction

Riff:
|-------------------------|
|------3------------------|
|-------------------------|x8
|--0-3----3-2-0-2-0-1-----|
|--0-3----3-2-0-2-0-1-----|
|--0-3----3-2-0-2-0-1-----|
PM            .   .


G2:
|-----------------------|
|-----------------------|
|---7/10---14---7-------|x4
|-----------------------|
|---5/-8---12---5-------|
|-----------------------|


Verse:
|------------------------|
|------------------------|
|------------------------|x12
|--0-3---3-2-0-2-0-1-----|
|--0-3---3-2-0-2-0-1-----|
|--0-3---3-2-0-2-0-1-----|
PM ...   ...........


G2:w/wah
|---------------------------------------|
|---------------------------------------|
|---5/7-----------5---------------------|x3
|---------------------------------------|
|---3/5-----------3---------------------|
|--------------------------3b`----------|


Chorus:
|----------------------------|
|----------------------------|
|----------------------------|x4
|---5/8---8-7-5-7-5--6-------|
|----------------------------|
|---5/8---8-7-5-7-5--6-------|


Riff

Verse

G2:                                  x2
|---------------------------------------|------------------------------|
|---------------------------------------|------------------------------|
|---5/7-----------5---------------------|---5/7------------5-----------|
|---------------------------------------|-------------------------4b---|
|---3/5-----------3---------------------|---3/5------------3-----------|
|--------------------------3b`----------|------------------------------|

Chorus


Post Chorus:
|--------0-----1----------------------|
|-----3----3--------------------------|
|-----2------2----3-3-3-3-3-3---------|x8
|--0--0-----------3-3-3-3-3-3---------|
|--0--0-----------1-1-1-1-1-1---------|
|--0--0------------------------3b`----|


G2:
|--/14--10--15--10--/14--10--15--10---10--14h15-17-18--17-17-15-15-17-15-14------/22-22-22-22--|
|----------------------------------------------------------------------------------------------|
|----------------------------------------------------------------------------------------------|
|----------------------------------------------------------------------------------------------|
|----------------------------------------------------------------------------------------------|
|----------------------------------------------------------------------------------------------|

G1:                       G2:
|-----------------------|-----20---19br----|
|-----------8-----------|------------------|
|---5-------7-----------|------------------|
|---5-------5-----------|------------------|
|---3-------5-----------|------------------|
|-----------5-----------|------------------|


Solo:
|-------------------------------------------------------------------------------------|
|-------------------------------------------------------------------------------------|
|--------7------------------------7--------------------------7-------------------7~---|
|----------0---5h7-/10-9-8~---------0---5h7--------------------0---5h7-/10-9-8-7------|
|---/5-8---------------------/5-8-----------8b`--10-5~--/5-8--------------------------|
|-------------------------------------------------------------------------------------|

|-----------------------------------------------------------------------------|
|------------------------------------20br-----17br-----15b--(15-15-15-15)r----|
|--12b----r-10h12p10-9h10p9-7~---/15-------14-------13------------------------|
|-----------------------------------------------------------------------------|
|-----------------------------------------------------------------------------|
|-----------------------------------------------------------------------------|

|-------------------------------------------------|
|--13-14-15-13-14-13------------------------------|
|---------------------14~-------------------------|
|-----------------------------5b-------------r----|
|-------------------------------------------------|
|-------------------------------------------------|

Verse

Chorus

Post Chorus

Riff


************************************

| /   slide up
| \   slide down
| h   hammer-on
| p   pull-off
| ~   vibrato
| +   harmonic
| x   Mute note
| b   Bend
| pb  Pre-bend
| br  Bend release
| pbr Pre-bend release
| brb Bend release bend
| b`  slight bend (about a quarter step)
| ()  strike note while string is bent
************************************
comments
print report bad tab
7 comments total. Showing first comments.
0 reply
jlyndon666 wrote on February 6 2013, 09:08 pm

Nice! \m/

0 reply
METALdementia wrote on February 22 2013, 10:09 pm

in the last part of the solo is not |-------------------------------------------------|
|--12-13-15-13-12-13-10~--------------------------|
i am sure the solo is in this way |-------------------------------------------------|
|--13-14-15-13-14-13---------------------------| |--------------------14~~-----------------------------| and thanks for the other parts and the solo

+2 reply
rziol3 wrote on March 30 2013, 01:00 pm

The song is in Drop C# not Drop D

I want to post or [tab]
guest
You may want to rate the tab now too:
select rating
Please do not post tabs as comments. Select "correction" instead!