Oops, an error
Loading. Please wait.

Hollow Tab

version 1
version 1

Whole song

Interactive

31,092 views 45 this week
7 commentsread comments
1 2 3 4 5
x 27
add to favorites
launch autoscroll
font size
0
reset
how to read this tab
guitar tuner
Autoscroll
slow
fast
+/-
esc
set tempo
stop
Help us to improve Ultimate-Guitar.com Take our survey!
×
Author
Tuning
D# G# C# F# A# D#
HOLLOW

Alice in Chains 

Tabbed by:Brownbear93

Tuning: Db Ab Db Gb Bb Eb

Cool new Alice tune. Cantrell never manages to disappoint.

Update: Thanks METALdementia for the correction

  [Riff]
D#|-------------------------|
A#|------3------------------|
F#|-------------------------|
C#|--0-3----3-2-0-2-0-1-----|
G#|--0-3----3-2-0-2-0-1-----|
D#|--0-3----3-2-0-2-0-1-----|(x8)
PM            .   .

  G2:
D#|-----------------------|
A#|-----------------------|
F#|---7/10---14---7-------|
C#|-----------------------|
G#|---5/-8---12---5-------|
D#|-----------------------|(x4)


  [Verse]
D#|------------------------|
A#|------------------------|
F#|------------------------|
C#|--0-3---3-2-0-2-0-1-----|
G#|--0-3---3-2-0-2-0-1-----|
D#|--0-3---3-2-0-2-0-1-----|(x12)
PM ...   ...........


  G2:w/wah
D#|---------------------------------------|
A#|---------------------------------------|
F#|---5/7-----------5---------------------|
C#|---------------------------------------|
G#|---3/5-----------3---------------------|
D#|--------------------------3b`----------|(x3)

  [Chorus]
D#|----------------------------|
A#|----------------------------|
F#|----------------------------|
C#|---5/8---8-7-5-7-5--6-------|
G#|----------------------------|
D#|---5/8---8-7-5-7-5--6-------|(x4)

[Riff]

[Verse]

  G2:                                  x2
D#|---------------------------------------|------------------------------|
A#|---------------------------------------|------------------------------|
F#|---5/7-----------5---------------------|---5/7------------5-----------|
C#|---------------------------------------|-------------------------4b---|
G#|---3/5-----------3---------------------|---3/5------------3-----------|
D#|--------------------------3b`----------|------------------------------|

[Chorus]

[Post-Chorus]

D#|--------0-----1----------------------|
A#|-----3----3--------------------------|
F#|-----2------2----3-3-3-3-3-3---------|
C#|--0--0-----------3-3-3-3-3-3---------|
G#|--0--0-----------1-1-1-1-1-1---------|
D#|--0--0------------------------3b`----|(x8)


  G2:
D#|--/14--10--15--10--/14--10--15--10---10--14h15-17-18--17-17-15-15-17-15-14------/22-22-22-22--|
A#|----------------------------------------------------------------------------------------------|
F#|----------------------------------------------------------------------------------------------|
C#|----------------------------------------------------------------------------------------------|
G#|----------------------------------------------------------------------------------------------|
D#|----------------------------------------------------------------------------------------------|

  G1:                       G2:
D#|-----------------------|-----20---19br----|
A#|-----------8-----------|------------------|
F#|---5-------7-----------|------------------|
C#|---5-------5-----------|------------------|
G#|---3-------5-----------|------------------|
D#|-----------5-----------|------------------|


[Solo]

D#|-------------------------------------------------------------------------------------|
A#|-------------------------------------------------------------------------------------|
F#|--------7------------------------7--------------------------7-------------------7~---|
C#|----------0---5h7-/10-9-8~---------0---5h7--------------------0---5h7-/10-9-8-7------|
G#|---/5-8---------------------/5-8-----------8b`--10-5~--/5-8--------------------------|
D#|-------------------------------------------------------------------------------------|

D#|-----------------------------------------------------------------------------|
A#|------------------------------------20br-----17br-----15b--(15-15-15-15)r----|
F#|--12b----r-10h12p10-9h10p9-7~---/15-------14-------13------------------------|
C#|-----------------------------------------------------------------------------|
G#|-----------------------------------------------------------------------------|
D#|-----------------------------------------------------------------------------|

D#|-------------------------------------------------|
A#|--13-14-15-13-14-13------------------------------|
F#|---------------------14~-------------------------|
C#|-----------------------------5b-------------r----|
G#|-------------------------------------------------|
D#|-------------------------------------------------|

[Verse]

[Chorus]

[Post-Chorus]

[Riff]



************************************

| PM  Palm mute
| /   Slide up
| b   Bend
| h   Hammer-on
| br  Bend release
| ~   Vibrato
| p   Pull-off
| r   Release 

************************************
Suggest correction
comments
print report bad tab
7 comments total. Showing first comments.
0 reply
jlyndon666 20 Feb 06, 2013 09:08 PM

Nice! \m/

+1 reply
METALdementia 10 Feb 22, 2013 10:09 PM

in the last part of the solo is not |-------------------------------------------------|
|--12-13-15-13-12-13-10~--------------------------|
i am sure the solo is in this way |-------------------------------------------------|
|--13-14-15-13-14-13---------------------------| |--------------------14~~-----------------------------| and thanks for the other parts and the solo

+1 reply
rziol3 10 Mar 30, 2013 01:00 PM

The song is in Drop C# not Drop D

guest
You may want to rate the tab now too:
select rating
Wanna post a correction for this tab? Suggest correction