Oops, an error
Loading. Please wait.

I Know Somethin Bout You Bass Tab

version 1
version 1

Whole song

Interactive

2,836 views 24 this week
no commentswrite comment
1 2 3 4 5
worth learning
x 3
add to favorites
launch autoscroll
font size
0
reset
guitar tuner
Tab Pro tools
  • play this tab
  • loop segment
  • change instrument
  • show fretboard
  • metronome
Autoscroll
slow
fast
+/-
esc
set tempo
stop
Contributor
----------------------------------------------------------------------------
	       I KNOW SOMETHIN (BOUT YOU) - Alice in Chains
----------------------------------------------------------------------------


Intro
G|--------4/6-4--|----------------|
D|---------------|6---4-----------|
A|---------------|--6-----6-5-4---|
E|-2-3-4---------|------7-------7-|
B|---------------|----------------|

G|--------4/6-4--|------4---------|
D|---------------|4-5-6-----------|
A|---------------|---------6-5-4--|
E|-2-3-4---------|---------------7|
B|---------------|----------------|

Guitar starts
G|--------4/6-4--|------4---------------|
D|---------------|4-5-6----6-4----------|
A|---------------|-------------6-5-4----|
E|-2-3-4---------|-------------------7-4|
B|---------------|----------------------|

G|--------4/6-4--|------4---------|
D|---------------|4-5-6-----------|
A|---------------|---------6-5-4--|
E|-2-3-4---------|---------------7|
B|---------------|----------------|

(Everything moves up a step after 2 repeats with singing)
G|--------6/8-6--|------6---------------|
D|---------------|6-7-8----8-6----------|
A|---------------|-------------8-7-6----|
E|-4-5-6---------|-------------------9-6|
B|---------------|----------------------|

G|--------6/8-6--|------6---------|
D|---------------|6-7-8-----------|
A|---------------|---------8-7-6--|
E|-4-5-6---------|---------------9|
B|---------------|----------------|

Chorus (Slide down E first)
G|-----------------|----|
D|-----------------|----|
A|-----------------|----|
E|-4--4--4--4--4-2-|-4--|
B|-----------------|----|
                    ^This is for the last bar only

Second chorus fill
G|-----------------|
D|---------------34|The second and third time the chorus is played
A|4-44-4-----4567--|it goes higher, this is what you're doing then
E|------7--47------|
B|-----------------|

G|-----------------|----|
D|-6--6--6--6--6-4-|----|
A|-----------------|----|
E|-----------------|-4--|
B|-----------------|----|
                    ^This is for the last bar only

Solo (Slide down E first)
G|--------------|-------|
D|--------------|-------|
A|--------------|-------|
E|-2--3--4------|-------|
B|----------4-4-|(rings)|
comments
We did not receive enough feedback on this tab! Please rate:
print report bad tab
1 2 3 4 5
I want to post or [tab]
guest
You may want to rate the tab now too:
select rating
Please do not post tabs as comments. Select "correction" instead!