Oops, an error
Loading. Please wait.

I Stay Away Tab

version 1
version 1

Intro

Whole song

Interactive

34,927 views 36 this week
4 commentsread comments
1 2 3 4 5
x 14
add to favorites
launch autoscroll
font size
0
reset
how to read this tab
guitar tuner
backing track
0:00
0:00
×
Best way to learn
"I Stay Away"
Autoscroll
slow
fast
+/-
esc
set tempo
stop
No one has ever put the right intro to this song..they all sound like crap...
sorry..here's the right one. It sounds perfect on at 12 string acoustic guitar.
Drop D tuning, tune down 1/2 step: Dadgbe

(let ring throughout)
    D             Csus2/D
e---5-----5-5-------3----
b---5h(7)-5-5-------3----
g---7-----7-7-------5----
d---0-----0-0--0-0--0----
a--------------0-0-------
D------------------------

  Csus2   G/B    Gsus2         D5
e--------------------------------
b--------------------------------
g------0----0--------------------
d----0----0--------0---0---------
a--3----2--------0---0--------0-0
D--------------5---5------5-4-0-0
Suggest correction
comments
print report bad tab
4 comments total. Showing first comments.
0 reply
Zack Attaran 10 Feb 16, 2003 07:00 PM

this intro rocks! even the nutshell book is wrong

0 reply
Booher 50 Feb 18, 2003 07:00 PM

e---5-----5-5-------8----
b---5h(7)-5-5-------8----
g---7-----7-7-------5----
d---0-----0-0--0-0--0----
a--------------0-0-------
D------------------------

Csus2 G/B Gsus2 D5
e--------------------------------
b--------------------------------
g------0----0--------------------
d----0----0--------0---0---------
a--3----2--------0---0--------0-0
D--------------5---5------5-4-0-0

0 reply
Zack Attaran 10 Feb 18, 2003 07:00 PM

i mean jar of flies book

guest
You may want to rate the tab now too:
select rating
Wanna post a correction for this tab? Suggest correction