Oops, an error
Loading. Please wait.

I Stay Away Bass Tab

version 2
version 2

Whole song

Interactive

3,301 views 9 this week
no commentswrite comment
1 2 3 4 5
excellent!
x 5
add to favorites
launch autoscroll
font size
0
reset
guitar tuner
Tab Pro tools
  • play this tab
  • loop segment
  • change instrument
  • show fretboard
  • metronome
×
Best way to learn
"I Stay Away"
Autoscroll
slow
fast
+/-
esc
set tempo
stop
Contributor
tuning 1/2 step down and Db

:25 x2
Gb|---------------------------------------------------------------------------------|
Db|---------------------------------------------------------------------5--4--------|
Ab|--------5--0-3----0-2--3--2---------------------5--0-3----0-2--3--2--------5--3--|
Db|--0-5-7----------------------5--5--540----0-5-7----------------------------------|

:49 x4
Gb|----------------------------------------------|
Db|----------------------------------------------|
Ab|---------------------------------------5^-5^--|
Db|--4--0-0--4--0--5~----4--0-0--4--0--5~--------|

1:13 x2
Gb|---------------------------------------------------------------------------------|
Db|---------------------------------------------------------------------5--4--------|
Ab|--------5--0-3----0-2--3--2---------------------5--0-3----0-2--3--2--------5--3--|
Db|--0-5-7----------------------5--5--540----0-5-7----------------------------------|

1:37 x4
Gb|----------------------------------------------|
Db|----------------------------------------------|
Ab|---------------------------------------5^-5^--|
Db|--4--0-0--4--0--5~----4--0-0--4--0--5~--------|

2:00
Gb|--------------------------7------------------------------------|
Db|---------------------------------------------------------------|
Ab|--5-5555--55--5--555--555----555--55----1-1--------1-3-5--555--|
Db|---------------------------------------------------------------|

2:12
Gb|--------------------------7----------------------------------------|
Db|----------------------------------------------------------2-2-3----|
Ab|--5-5555--55--5--555--555----555--55----1-1--------1-3-5--------3--|
Db|-------------------------------------------------------------------|

2:23 x2
Gb|---------------------------------------------------------------------------------|
Db|---------------------------------------------------------------------5--4--------|
Ab|--------5--0-3----0-2--3--2---------------------5--0-3----0-2--3--2--------5--3--|
Db|--0-5-7----------------------5--5--540----0-5-7----------------------------------|

2:46 x4
Gb|----------------------------------------------|
Db|----------------------------------------------|
Ab|---------------------------------------5^-5^--|
Db|--4--0-0--4--0--5~----4--0-0--4--0--5~--------|

3:08
Gb|--------------------------7------------------------------------|
Db|---------------------------------------------------------------|
Ab|--5-5555--55--5--555--555----555--55----1-1--------1-3-5--555--|
Db|---------------------------------------------------------------|


3:20
Gb|--------------------------7----------------------------------------|
Db|----------------------------------------------------------2-2-3----|
Ab|--5-5555--55--5--555--555----555--55----1-1--------1-3-5--------3--|
Db|-------------------------------------------------------------------|

3:31
Gb|--------------------------7------------------------------------|
Db|---------------------------------------------------------------|
Ab|--5-5555--55--5--555--555----555--55----1-1--------1-3-5--555--|
Db|---------------------------------------------------------------|

3:43
Gb|--------------------------7----------------------------------------|
Db|----------------------------------------------------------2-2-3----|
Ab|--5-5555--55--5--555--555----555--55----1-1--------1-3-5--------3--|
Db|-------------------------------------------------------------------|


3:55
Gb|--------------------------7------------------|
Db|---------------------------------------------|
Ab|--5-5555--55--5--555--555----555--55----1-1--|
Db|---------------------------------------------|

comments
print report bad tab
I want to post or [tab]
guest
You may want to rate the tab now too:
select rating
Please do not post tabs as comments. Select "correction" instead!