Oops, an error
Loading. Please wait.

It Aint Like That Tab

version 1
version 1

Whole song

Interactive

32,157 views 72 this week
2 commentsread comments
1 2 3 4 5
x 11
add to favorites
launch autoscroll
font size
0
reset
how to read this tab
guitar tuner
Autoscroll
slow
fast
+/-
esc
set tempo
stop
Help us to improve Ultimate-Guitar.com Take our survey!
×
Tuning
D# G# C# F# A# D#
Tune down 1/2 step

[Riff 1]
    E               (1)
D#|-)-0---------------------------------------------|
A#|-(-0---------------------------------------------|
F#|-)-1---------------------------------------------|
C#|-(-2---------------------------------------------|
G#|-)-2---------------------------------------------|
D#|-(-0-------------3^...R--------------------------|

[Riff 2]
D#|-----------------------------------------------------|
A#|-----------------------------------------------------|
F#|-----------------------------------------------------|
C#|-----------------------------------------------------|
G#|----2---2------3--3---3------------------------------|
D#|----0---0------1--1---1-------3----1----0------------|

[Riff 2]
(with this fill once in the intro)
      w/ wah
D#|-----[12]-------------------------------------------|
A#|-----------[12]-------------------------------------|
F#|----------------------------------------------------|
C#|----------------------------------------------------|
G#|----------------------------------------------------|
D#|----------------------------------------------------|

 [Riff  3]
D#|---------------------------------------------------|
A#|---------------------------------------------------|
F#|---------------------------------------------------|
C#|----5--------------7-------------------2-----------|
G#|----3-----5-------5-----7-------------0------------|
D#|-----------3--------------5-------3----------------|

 [Solo]
D#|-------------------------------------------------------|
A#|-------------------------------------------------------|
F#|-------------------------------------------------------|
C#|-----/8--7------7>5>0-----3--2-------------------------|
G#|-------------------------------------------------------|
D#|-------------------------------------------------------|

D#|-------------------------------------------------------|
A#|---------------------3---5-----------------------------|
F#|-----------0--2----------------------------------------|
C#|---2--3------------------------------------------------|
G#|-------------------------------------------------------|
D#|-------------------------------------------------------|

                                  (1)       (1)      (1)
D#|-------------------------------------------------------------|
A#|----------------------------15-------15-------15-------------|
F#|---------12--14--12----14^...----17^-----17^-----------------|
C#|---/14-------------------------------------------------------|
G#|-------------------------------------------------------------|
D#|-------------------------------------------------------------|

         (1)   (1)   (1/2)                    (1)
D#|-------------------------------------------------------------|
A#|---15-----15-------15-------15-------------------------------|
F#|---17^----17^----R17------16-------14^----12-----------------|
C#|-------------------------------------------------------------|
G#|-------------------------------------------------------------|
D#|-------------------------------------------------------------|

        (1)                        (1)
D#|---15^---R15---------------------------------------------------|
A#|--------------------17----15..^R-----15--15--15--15------------|
F#|---------------------------------------------------------------|
C#|---------------------------------------------------------------|
G#|---------------------------------------------------------------|
D#|---------------------------------------------------------------|

D#|-------------------------------------------------------------|
A#|---12--12--12--12-----10--10----8--8/5-----------------------| 
F#|-------------------------------------------------------------|
C#|-------------------------------------------------------------|
G#|-------------------------------------------------------------|
D#|-------------------------------------------------------------|

           (1)
D#|-------------------------------------------------------|
A#|---0--3^R>0--------------------------------------------|
F#|------------------0------------------------------------|
C#|-------------------------------------------------------|
G#|-------------------------------------------------------|
D#|-------------------------------------------------------|



************************************

| [n]  Artificial harmonic
| /    Slide up

************************************
Suggest correction
comments
print report bad tab
2 comments total.
0 reply
wolfsbane6 10 Aug 06, 2010 09:20 AM

what is this??

+1 reply
Mainer 909 Mar 12, 2011 12:39 PM

@wolfsbane6 this is "It Ain't Like That" by Alice In Chains, off of their Facelift album

guest
You may want to rate the tab now too:
select rating
Wanna post a correction for this tab? Suggest correction