Oops, an error
Loading. Please wait.

Junkhead Tab

version 1
version 1

Whole song

Interactive

35,475 views 78 this week
8 commentsread comments
1 2 3 4 5
x 5
add to favorites
launch autoscroll
font size
0
reset
how to read this tab
guitar tuner
Autoscroll
slow
fast
+/-
esc
set tempo
stop
Help us to improve Ultimate-Guitar.com Take our survey!
×
[Intro]  
[RIff 1]
(w/ ad lib intro vocal)

[Riff 1]  
        yeah
        B5  Bb5    Bb5 G5  F#5   F5   F5  E5
e|-----------------------------------------------|
B|-----------------------------------------------|
G|------4---3------3-----------------------------|
D|------4---3------3---5---4-----3-----3---2-----|
A|------2---1------1---5---4-----3-----3---2-----|
E|---------------------3---2-----1-----1---0-----|

        B5  Bb5    Bb5 G5  F#5   F5   F5  E5   E5
e|-----------------------------------------------|
B|-----------------------------------------------|
G|------4---3------3-----------------------------|
D|------4---3------3---5---4-----3-----3---2---2-|
A|------2---1------1---5---4-----3-----3---2---2-|
E|---------------------3---2-----1-----1---0---0-|

        yeah.............  ah..............
        B5  Bb5    Bb5 G5  F#5   F5   F5  E5
e|-----------------------------------------------|
B|-----------------------------------------------|
G|------4---3------3-----------------------------|
D|------4---3------3---5---4-----3-----3---2-----|
A|------2---1------1---5---4-----3-----3---2-----|
E|---------------------3---2-----1-----1---0-----|

                                        end Riff 1
        B5  Bb5    Bb5 G5  F#5   F5   F5  E5
e|-----------------------------------------------|
B|-----------------------------------------------|
G|------4---3------3-----------------------------|
D|------4---3------3---5---4-----3-----3---2-----|
A|------2---1------1---5---4-----3-----3---2-----|
E|---------------------3---2-----1-----1---0-----|

[Verse 1]
(Riff 2 w/)

a good night, the best in a long time
a new friend turned me on to an old favorate
nothing better than a dealer who's high
be high, convince them to buy

[Riff 2]
e|-----------------------------------------------|
B|-----------------------------------------------|
G|-----------------------------------------------|
D|-----------------------------------------------|
A|------2---1------1-----------------------------|
E|---------------------3~--2-----1-----1---0-----|
       palm mute slightly

e|-----------------------------------------------|
B|-----------------------------------------------|
G|-----------------------------------------------|
D|-----------------------------------------------|
A|------2---1------1-----------------------------|
E|---------------------3~--2-----1-----1---0-----|

e|-----------------------------------------------|
B|-----------------------------------------------|
G|-----------------------------------------------|
D|-----------------------------------------------|
A|------2---1------1-----------------------------|
E|---------------------3~--2-----1-----1---0-----|

                                        end Riff 2
e|-----------------------------------------------|
B|-----------------------------------------------|
G|-----------------------------------------------|
D|-----------------------------------------------|
A|------2---1------1-----------------------------|
E|---------------------3~--2-----1-----1---0-----|

[Chorus]
    yeah.....                                what's my drug of choice?
    A5        C5                   G5        F5
e|------------------------------|------------------------------------------|
B|------------------------------|------------------------------------------|
G|--2--2--2---5-----------------|--0--0--0---------------------------------|
D|--2--2--2---5-----------------|--0--0--0---3----------3--2--0-----0------|
A|--0--0--0---3------------X-X--|--X--X--X---3-------------------3---------|
E|-------------------------X-X--|--3--3--3---1-------------------------3~--|

                                             well, what have you got?
    A5        C5                   G5        F5
e|------------------------------|------------------------------------------|
B|------------------------------|------------------------------------------|
G|--2--2--2---5-----------------|--0--0--0---------------------------------|
D|--2--2--2---5-----------------|--0--0--0---3----------3--2--0-----0------|
A|--0--0--0---3------------X-X--|--X--X--X---3-------------------3---------|
E|-------------------------X-X--|--3--3--3---1-------------------------3~--|

                                             I don't go broke
    A5        C5                   G5        F5
e|------------------------------|------------------------------------------|
B|------------------------------|------------------------------------------|
G|--2--2--2---5-----------------|--0--0--0---------------------------------|
D|--2--2--2---5-----------------|--0--0--0---3----------3--2--0-----0------|
A|--0--0--0---3------------X-X--|--X--X--X---3-------------------3---------|
E|-------------------------X-X--|--3--3--3---1-------------------------3~--|

                                             and I do it a lot
    A5        C5                   G5        F5
e|------------------------------|------------------------------------------|
B|------------------------------|------------------------------------------|
G|--2--2--2---5-----------------|--0--0--0---------------------------------|
D|--2--2--2---5-----------------|--0--0--0---3----------3--2--0-----0------|
A|--0--0--0---3------------X-X--|--X--X--X---3-------------------3---------|
E|-------------------------X-X--|--3--3--3---1-------------------------3~--|

[Verse 2] 
(Riff 1 w/ lyrics)
seems so sick to the hypocrite norm
running their boring drills
but we are an elite race of our own
the stoners, junkies, and freaks

[Verse 3]
(Riff 2 w/ lyrics)
are you happy?  i am man
content and fully aware
money, statues, nothing to me
'cause your life's empty and bare

[Chorus]
 yeah.....                                what's my drug of choice?
    A5        C5                   G5        F5
e|------------------------------|------------------------------------------|
B|------------------------------|------------------------------------------|
G|--2--2--2---5-----------------|--0--0--0---------------------------------|
D|--2--2--2---5-----------------|--0--0--0---3----------3--2--0-----0------|
A|--0--0--0---3------------X-X--|--X--X--X---3-------------------3---------|
E|-------------------------X-X--|--3--3--3---1-------------------------3~--|

                                             well, what have you got?
    A5        C5                   G5        F5
e|------------------------------|------------------------------------------|
B|------------------------------|------------------------------------------|
G|--2--2--2---5-----------------|--0--0--0---------------------------------|
D|--2--2--2---5-----------------|--0--0--0---3----------3--2--0-----0------|
A|--0--0--0---3------------X-X--|--X--X--X---3-------------------3---------|
E|-------------------------X-X--|--3--3--3---1-------------------------3~--|

                                             I don't go broke
    A5        C5                   G5        F5
e|------------------------------|------------------------------------------|
B|------------------------------|------------------------------------------|
G|--2--2--2---5-----------------|--0--0--0---------------------------------|
D|--2--2--2---5-----------------|--0--0--0---3----------3--2--0-----0------|
A|--0--0--0---3------------X-X--|--X--X--X---3-------------------3---------|
E|-------------------------X-X--|--3--3--3---1-------------------------3~--|

                                             and I do it a lot
    A5        C5                   G5        F5
e|------------------------------|------------------------------------------|
B|------------------------------|------------------------------------------|
G|--2--2--2---5-----------------|--0--0--0---------------------------------|
D|--2--2--2---5-----------------|--0--0--0---3----------3--2--0-----0------|
A|--0--0--0---3------------X-X--|--X--X--X---3-------------------3---------|
E|-------------------------X-X--|--3--3--3---1-------------------------3~--|

[Interlude] 
(guitar plays harmonized solo while bass plays Chorus)

 [Solo]
e|-------------------------------------|
B|---------------8----------8--8--10---|
G|------------9------------------------|
D|--7---7--7---------------------------|
A|-------------------------------------|
E|-------------------------------------|
                                            repeat 4x
---------------------------------------------------|
---8------8--8--10---------------------------------|
--------------------10------10--9--7------7--------|
--------------------------------------10-----------|
---------------------------------------------10----|
---------------------------------------------------|

Riff 1
(w/ ad lib intro vocals) 

[Verse 4]
(w/ Riff 2 and lyrics)

you can't understand a user's mind
but try, with your books and degrees
if you let yourself go and open your mind
i'll bet you'd be doing like me
and it ain't so bad

[Chorus]
 yeah.....                                what's my drug of choice?
    A5        C5                   G5        F5
e|------------------------------|------------------------------------------|
B|------------------------------|------------------------------------------|
G|--2--2--2---5-----------------|--0--0--0---------------------------------|
D|--2--2--2---5-----------------|--0--0--0---3----------3--2--0-----0------|
A|--0--0--0---3------------X-X--|--X--X--X---3-------------------3---------|
E|-------------------------X-X--|--3--3--3---1-------------------------3~--|

                                             well, what have you got?
    A5        C5                   G5        F5
e|------------------------------|------------------------------------------|
B|------------------------------|------------------------------------------|
G|--2--2--2---5-----------------|--0--0--0---------------------------------|
D|--2--2--2---5-----------------|--0--0--0---3----------3--2--0-----0------|
A|--0--0--0---3------------X-X--|--X--X--X---3-------------------3---------|
E|-------------------------X-X--|--3--3--3---1-------------------------3~--|

                                             I don't go broke
    A5        C5                   G5        F5
e|------------------------------|------------------------------------------|
B|------------------------------|------------------------------------------|
G|--2--2--2---5-----------------|--0--0--0---------------------------------|
D|--2--2--2---5-----------------|--0--0--0---3----------3--2--0-----0------|
A|--0--0--0---3------------X-X--|--X--X--X---3-------------------3---------|
E|-------------------------X-X--|--3--3--3---1-------------------------3~--|

                                             and I do it a lot
    A5        C5                   G5        F5
e|------------------------------|------------------------------------------|
B|------------------------------|------------------------------------------|
G|--2--2--2---5-----------------|--0--0--0---------------------------------|
D|--2--2--2---5-----------------|--0--0--0---3----------3--2--0-----0------|
A|--0--0--0---3------------X-X--|--X--X--X---3-------------------3---------|
E|-------------------------X-X--|--3--3--3---1-------------------------3~--|

[Outro]  
(Riff 1 w/ lyrics)

say, i do it a lot
i do it a lot
i do it a lot
say, i do it a lot
 
2. Song: Junkhead

[Intro]
e|-------------------------------------------------------------------|
B|-------------------------------------------------------------------|
G|------5--4-----4---------------------------------------------------|
D|------5--4-----4--5----4--3----3--5--------------------------------|
A|------3--2-----2--5----4--3----3--5--------------------------------|
E|-------------------3----2--1----1--3-------------------------------|
                Repeat 4x

[Verse]
e|--------------------------------------------------------------------|
B|--------------------------------------------------------------------|
G|--------------------------------------------------------------------|
D|--------------------------------------------------------------------|
A|------3--2-----2----------------------------------------------------|
E|-------------------3----2--1----1--3--------------------------------|
                Repeat 4x   (palm mute slightly)

[Chorus]
(F#,B,A,G)

F#/B/A
Yeahhhh
 G                           F#/B/A
What's my drug of choice,
G                       F#/B/A
Well what have you got?
G               F#/B/A
I don't go broke,
G               F#/B/A
And I do it alive!

[Verse]
e|-------------------------------------------------------------------|
B|-------------------------------------------------------------------|
G|------5--4-----4---------------------------------------------------|
D|------5--4-----4--5----4--3----3--5--------------------------------|
A|------3--2-----2--5----4--3----3--5--------------------------------|
E|-------------------3----2--1----1--3-------------------------------|

(The verse goes back to these chords 4x and then to the root notes for the 
chords 4x.)

[Solo]
e|----------------------------------------------------------------------|
B|----------------------------------------------------------------------|
G|-----------8-11---11-11-13-11----11-11-13-9----9-8-6-4----------------|
D|-6---6-6-------------------------------------------------------7-5----|
A|----------------------------------------------------------------------|
E|----------------------------------------------------------------------|
                Repeat 4x

************************************

| ~  Vibrato
| x  Dead note

************************************
Suggest correction
comments
print report bad tab
8 comments total. Showing first comments.
-1 reply
its_pretty_scar 10 Jul 05, 2004 12:00 AM

i fink its more or less rite jus if ya transpose it to drop d u'll b sorted.

-2 reply
Igg lockwood 10 Feb 23, 2006 07:18 PM

this is wrong if ur gonna write an AIC tab do it rite and if u no alice in chains u would no that jerry plays in tuned half step down more or less its wrong

-1 reply
BGM>YOU 30 Aug 13, 2007 04:37 PM

I came up with something that sounds like it...much more than your version...

|-----------------------------------------------|
|-----------------------------------------------|
|-----------------------------------------------|
|------4---3------3--2--------------------------|
|------2---1------1--0---4---3---3---2----------|
|------------------------2---1---1---0----------|

guest
You may want to rate the tab now too:
select rating
Wanna post a correction for this tab? Suggest correction