Oops, an error
Loading. Please wait.

Junkhead Tab

version 3
version 3

Whole song

Interactive

22,366 views 24 this week
6 commentsread comments
1 2 3 4 5
x 25
add to favorites
launch autoscroll
font size
0
reset
how to read this tab
guitar tuner
backing track
0:00
0:00
×
Best way to learn
"Junkhead"
Autoscroll
slow
fast
+/-
esc
set tempo
stop
Alice in Chains
Junkhead (the right version)
Tabbed by: Steve Dubuque (sdubuque_vp@hotmail.com)
Standard Tuning, half-step down
Eb Ab Db Gb Bb Eb

[Intro]
e|---------------------------------------|
B|---------------------------------------|
G|---------------------------------------|
D|---------------------------------------|
A|-9b10--8---8-5--4b5--3----3-2----------|
E|-7b----6---6-3--2b---1----1-0----------|

[Verse]
e|---------------------------------------|
B|---------------------------------------|
G|---------------------------------------|
D|-4--3---3------------------------------|
A|-2--1---1-----4--3----3-2--------------|
E|----------3b~-2--1----1-0--------------|

[Chorus]
e|------3---3----------------------------|
B|-(2)--3---3----------------------------|
G|--2---0---0----------------------------|
D|--2---2---0---3---3-2-0---0------------|
A|--0---3--(2)--3---------3--------------|
E|----------3---1-------------3b~--------|

[Solo](w/octave effect)
e|------------------------------------------------------------------|
B|------------------------------------------------------------------|
G|----------------12v--12-12b14r12--12-12b14\10---9-----------------|
D|------------10------------------------------------12-10-12--------|
A|-12v--12-12------------------------------------------------10-----|
E|------------------------------------------------------------------|

[End]
Suggest correction
comments
print report bad tab
6 comments total. Showing first comments.
0 reply
Shaunfromtheuk 40 Apr 15, 2010 02:23 PM

Awesome tab for an awesome song,love the solo in this. Thanks loads 5*

0 reply
sdubuque43 413 Sep 14, 2010 02:31 PM

no prob dude

0 reply
jlyndon666 20 May 21, 2011 09:23 AM

Awesome tab man!

guest
You may want to rate the tab now too:
select rating
Wanna post a correction for this tab? Suggest correction