Oops, an error
Loading. Please wait.

Killer Is Me Bass Tab

version 1
version 1

Whole song

Interactive

1,228 views 3 this week
1 commentread comment
1 2 3 4 5
please rate
add to favorites
launch autoscroll
font size
0
reset
guitar tuner
Autoscroll
slow
fast
+/-
esc
set tempo
stop
Help us to improve Ultimate-Guitar.com Take our survey!
×
Author
Difficulty
intermediate
The Killer is Me by Alice in Chains
Bassist: Mike Inez


Verse:
------------------------------------|
--------7h8-7-----------------------|
---------------7-7-7-7-7-7----------|
--5--5------------------------------|

Chorus:
-----------------          -------|  (I don't want to tab the picking pattern
-----------------(2 times) -------|   out for the chorus so I just put the
-----------------          -------|   notes, because it'd be too long if I
-----7----2------          --1*---|   did that)

*let ring


Guitar:

   A         ???

--0-0-0---0-0-0-0-0--------------|
--2-2-2---6-6-6-6-6--------------|
--2-2-2---0-0-0-0-0--------------|
--2-2-2---5-5-5-5-5--------------|
---------------------------------|
---------------------------------|

Guitar 2 on verse:

-------0-------------------12*---|
---2----2---------------12*------|
-----2----------12*-12*----------|
-2-------------------------------|
---------------------------------|
---------------------------------|

Chorus chords: E, F#m, E, F#m, Fmaj7

   E   F#m  Fmaj7
--------2-----0---|
---0----2-----1---|
---1----3-----2---|
---2----4-----3---|
---2----4---------|
--------2---------|
Suggest correction
Give kudos to tab author, rate the tab!
1 2 3 4 5
comments
print report bad tab
1 comment total.
0 reply
swave75 382 wrote on November 26 2012, 09:55 pm

Good tab dude!

guest
You may want to rate the tab now too:
select rating
Please do not post tabs as comments. Select "correction" instead!