Oops, an error
Loading. Please wait.

Last Of My Kind Bass Tab

1,180 views 12 this week
no commentswrite comment
1 2 3 4 5
please rate
add to favorites
launch autoscroll
font size
0
reset
guitar tuner
Autoscroll
slow
fast
+/-
esc
set tempo
stop
Help us to improve Ultimate-Guitar.com Take our survey!
×
Author
Difficulty
novice
tuning Db Ab Db Gb

:23 x3
Gb|---------------------------------|
Db|---------------------------------|
Ab|---------------------------------|
Db|-2/4--44--4/5--55--5/7--7--55-44-|

:36
Gb|---------------------------------|
Db|---------------------------------|
Ab|---------------------------------|
Db|-2/4--44--4/5--55--5/7--7--88-44-|

:39 x2
Gb|---------------------------------|
Db|---------------------------------|
Ab|---------------------------------|
Db|-2/4--44--4/5--55--5/7--7--55-44-|

:52
Gb|---------------------------------|
Db|---------------------------------|
Ab|---------------------------------|
Db|-2/4--44--4/5--55--5/7--7--88-44-|

:56 x3
Gb|---------------------------------|
Db|---------------------------------|
Ab|---------------------------------|
Db|-2/4--44--4/5--55--5/7--7--55-44-|

1:08
Gb|---------------------------------|
Db|---------------------------------|
Ab|---------------------------------|
Db|-2/4--44--4/5--55--5/7--7--88-44-|

1:12 x3
Gb|--------------------------------|
Db|--------------------------------|
Ab|--------------------------------|
Db|-5h7--77-7--77-7--77--7-7-7-8-5-|

1:29 x2
Gb|-------------------------------------------------------|
Db|-------------------------------------------------------|
Ab|-------------------------------------------------------|
Db|-2-2-2-2-2-2---2-2-2-2-2-2---2-2-2-2-2-2---2-2s8-7-6-5-|

1:46 x3
Gb|---------------------------------|
Db|---------------------------------|
Ab|---------------------------------|
Db|-2/4--44--4/5--55--5/7--7--55-44-|

1:58
Gb|---------------------------------|
Db|---------------------------------|
Ab|---------------------------------|
Db|-2/4--44--4/5--55--5/7--7--88-44-|

2:02 x3
Gb|---------------------------------|
Db|---------------------------------|
Ab|---------------------------------|
Db|-2/4--44--4/5--55--5/7--7--55-44-|

2:14
Gb|---------------------------------|
Db|---------------------------------|
Ab|---------------------------------|
Db|-2/4--44--4/5--55--5/7--7--88-44-|

2:19 x3
Gb|---------------------------------|
Db|---------------------------------|
Ab|---------------------------------|
Db|-2/4--44--4/5--55--5/7--7--55-44-|

2:31
Gb|---------------------------------|
Db|---------------------------------|
Ab|---------------------------------|
Db|-2/4--44--4/5--55--5/7--7--88-44-|


2:35 x3
Gb|--------------------------------|
Db|--------------------------------|
Ab|--------------------------------|
Db|-5h7--77-7--77-7--77--7-7-7-8-5-|

2:52 x4
Gb|-------------------------------------------------------|
Db|-------------------------------------------------------|
Ab|-------------------------------------------------------|
Db|-2-2-2-2-2-2---2-2-2-2-2-2---2-2-2-2-2-2---2-2s8-7-6-5-|

3:25 x5
Gb|-------------------------------------------------------------------|
Db|-------------------------------------------------------------------|
Ab|-------------------------------------------------------------------|
Db|-2-0-2h3-2---0-2/5---3-2-0-2h3-2---2-0-2h3-2---0-2/7---3-2-0-2h3-2-|

3:59 x3
Gb|---------------------------------|
Db|---------------------------------|
Ab|---------------------------------|
Db|-2/4--44--4/5--55--5/7--7--55-44-|

4:11
Gb|---------------------------------|
Db|---------------------------------|
Ab|---------------------------------|
Db|-2/4--44--4/5--55--5/7--7--88-44-|

4:15 x2
Gb|-------------------------------------------------------|
Db|-------------------------------------------------------|
Ab|-------------------------------------------------------|
Db|-2-2-2-2-2-2---2-2-2-2-2-2---2-2-2-2-2-2---2-2s8-7-6-5-|

4:32 x22
Gb|-------------|
Db|-------------|
Ab|-------------|
Db|-2-2-2-2-2-2-|

5:05
Gb|---------------------------------------------|
Db|---------------------------------------------|
Ab|---------------------------------------------|
Db|-0-2-2/3/8--7-5-2-2-2---0-2-2/3/8--7-5-7-2-2-|

5:13
Gb|---------------------------------|
Db|-----------7b8r7p5----5-7-b8-5---|
Ab|-------------------7-----------7-|
Db|-0-2-2/3/8-----------------------|

5:17
Gb|----------------------|
Db|----------------------|
Ab|----------------------|
Db|-0-2-2/3/8--7-5-2-2-2-|

5:21 x12
Gb|-------------|
Db|-------------|
Ab|-------------|
Db|-2-2-2-2-2-2-|
Suggest correction
Give kudos to tab author, rate the tab!
1 2 3 4 5
comments
print report bad tab
guest
You may want to rate the tab now too:
select rating
Please do not post tabs as comments. Select "correction" instead!